  0
SECTION
  2
HEADER
  9
$ACADVER
  1
AC1027
  9
$ACADMAINTVER
 70
   125
  9
$DWGCODEPAGE
  3
ANSI_1252
  9
$REQUIREDVERSIONS
160
                 0
  9
$INSBASE
 10
0.0
 20
0.0
 30
0.0
  9
$EXTMIN
 10
2582697.99
 20
1219054.397
 30
0.0
  9
$EXTMAX
 10
2589826.58
 20
1223782.507
 30
0.0
  9
$LIMMIN
 10
0.0
 20
0.0
  9
$LIMMAX
 10
12.0
 20
9.0
  9
$ORTHOMODE
 70
     0
  9
$REGENMODE
 70
     1
  9
$FILLMODE
 70
     1
  9
$QTEXTMODE
 70
     0
  9
$MIRRTEXT
 70
     0
  9
$LTSCALE
 40
1.0
  9
$ATTMODE
 70
     1
  9
$TEXTSIZE
 40
0.2
  9
$TRACEWID
 40
0.05
  9
$TEXTSTYLE
  7
Standard
  9
$CLAYER
  8
0
  9
$CELTYPE
  6
ByLayer
  9
$CECOLOR
 62
   256
  9
$CELTSCALE
 40
1.0
  9
$DISPSILH
 70
     0
  9
$DIMSCALE
 40
1.0
  9
$DIMASZ
 40
0.18
  9
$DIMEXO
 40
0.0625
  9
$DIMDLI
 40
0.38
  9
$DIMRND
 40
0.0
  9
$DIMDLE
 40
0.0
  9
$DIMEXE
 40
0.18
  9
$DIMTP
 40
0.0
  9
$DIMTM
 40
0.0
  9
$DIMTXT
 40
0.18
  9
$DIMCEN
 40
0.09
  9
$DIMTSZ
 40
0.0
  9
$DIMTOL
 70
     0
  9
$DIMLIM
 70
     0
  9
$DIMTIH
 70
     1
  9
$DIMTOH
 70
     1
  9
$DIMSE1
 70
     0
  9
$DIMSE2
 70
     0
  9
$DIMTAD
 70
     0
  9
$DIMZIN
 70
     0
  9
$DIMBLK
  1

  9
$DIMASO
 70
     1
  9
$DIMSHO
 70
     1
  9
$DIMPOST
  1

  9
$DIMAPOST
  1

  9
$DIMALT
 70
     0
  9
$DIMALTD
 70
     2
  9
$DIMALTF
 40
25.4
  9
$DIMLFAC
 40
1.0
  9
$DIMTOFL
 70
     0
  9
$DIMTVP
 40
0.0
  9
$DIMTIX
 70
     0
  9
$DIMSOXD
 70
     0
  9
$DIMSAH
 70
     0
  9
$DIMBLK1
  1

  9
$DIMBLK2
  1

  9
$DIMSTYLE
  2
Standard
  9
$DIMCLRD
 70
     0
  9
$DIMCLRE
 70
     0
  9
$DIMCLRT
 70
     0
  9
$DIMTFAC
 40
1.0
  9
$DIMGAP
 40
0.09
  9
$DIMJUST
 70
     0
  9
$DIMSD1
 70
     0
  9
$DIMSD2
 70
     0
  9
$DIMTOLJ
 70
     1
  9
$DIMTZIN
 70
     0
  9
$DIMALTZ
 70
     0
  9
$DIMALTTZ
 70
     0
  9
$DIMUPT
 70
     0
  9
$DIMDEC
 70
     4
  9
$DIMTDEC
 70
     4
  9
$DIMALTU
 70
     2
  9
$DIMALTTD
 70
     2
  9
$DIMTXSTY
  7
Standard
  9
$DIMAUNIT
 70
     0
  9
$DIMADEC
 70
     0
  9
$DIMALTRND
 40
0.0
  9
$DIMAZIN
 70
     0
  9
$DIMDSEP
 70
    46
  9
$DIMATFIT
 70
     3
  9
$DIMFRAC
 70
     0
  9
$DIMLDRBLK
  1

  9
$DIMLUNIT
 70
     2
  9
$DIMLWD
 70
    -2
  9
$DIMLWE
 70
    -2
  9
$DIMTMOVE
 70
     0
  9
$DIMFXL
 40
1.0
  9
$DIMFXLON
 70
     0
  9
$DIMJOGANG
 40
0.7853981633974483
  9
$DIMTFILL
 70
     0
  9
$DIMTFILLCLR
 70
     0
  9
$DIMARCSYM
 70
     0
  9
$DIMLTYPE
  6

  9
$DIMLTEX1
  6

  9
$DIMLTEX2
  6

  9
$DIMTXTDIRECTION
 70
     0
  9
$LUNITS
 70
     2
  9
$LUPREC
 70
     4
  9
$SKETCHINC
 40
0.1
  9
$FILLETRAD
 40
0.0
  9
$AUNITS
 70
     0
  9
$AUPREC
 70
     0
  9
$MENU
  1
.
  9
$ELEVATION
 40
0.0
  9
$PELEVATION
 40
0.0
  9
$THICKNESS
 40
0.0
  9
$LIMCHECK
 70
     0
  9
$CHAMFERA
 40
0.0
  9
$CHAMFERB
 40
0.0
  9
$CHAMFERC
 40
0.0
  9
$CHAMFERD
 40
0.0
  9
$SKPOLY
 70
     0
  9
$TDCREATE
 40
2460424.443460648
  9
$TDUCREATE
 40
2460424.360127315
  9
$TDUPDATE
 40
2460424.443460648
  9
$TDUUPDATE
 40
2460424.360127315
  9
$TDINDWG
 40
0.0000000000
  9
$TDUSRTIMER
 40
0.0000000000
  9
$USRTIMER
 70
     1
  9
$ANGBASE
 50
0.0
  9
$ANGDIR
 70
     0
  9
$PDMODE
 70
     0
  9
$PDSIZE
 40
0.0
  9
$PLINEWID
 40
0.0
  9
$SPLFRAME
 70
     0
  9
$SPLINETYPE
 70
     6
  9
$SPLINESEGS
 70
     8
  9
$HANDSEED
  5
AD
  9
$SURFTAB1
 70
     6
  9
$SURFTAB2
 70
     6
  9
$SURFTYPE
 70
     6
  9
$SURFU
 70
     6
  9
$SURFV
 70
     6
  9
$UCSBASE
  2

  9
$UCSNAME
  2

  9
$UCSORG
 10
0.0
 20
0.0
 30
0.0
  9
$UCSXDIR
 10
1.0
 20
0.0
 30
0.0
  9
$UCSYDIR
 10
0.0
 20
1.0
 30
0.0
  9
$UCSORTHOREF
  2

  9
$UCSORTHOVIEW
 70
     0
  9
$UCSORGTOP
 10
0.0
 20
0.0
 30
0.0
  9
$UCSORGBOTTOM
 10
0.0
 20
0.0
 30
0.0
  9
$UCSORGLEFT
 10
0.0
 20
0.0
 30
0.0
  9
$UCSORGRIGHT
 10
0.0
 20
0.0
 30
0.0
  9
$UCSORGFRONT
 10
0.0
 20
0.0
 30
0.0
  9
$UCSORGBACK
 10
0.0
 20
0.0
 30
0.0
  9
$PUCSBASE
  2

  9
$PUCSNAME
  2

  9
$PUCSORG
 10
0.0
 20
0.0
 30
0.0
  9
$PUCSXDIR
 10
1.0
 20
0.0
 30
0.0
  9
$PUCSYDIR
 10
0.0
 20
1.0
 30
0.0
  9
$PUCSORTHOREF
  2

  9
$PUCSORTHOVIEW
 70
     0
  9
$PUCSORGTOP
 10
0.0
 20
0.0
 30
0.0
  9
$PUCSORGBOTTOM
 10
0.0
 20
0.0
 30
0.0
  9
$PUCSORGLEFT
 10
0.0
 20
0.0
 30
0.0
  9
$PUCSORGRIGHT
 10
0.0
 20
0.0
 30
0.0
  9
$PUCSORGFRONT
 10
0.0
 20
0.0
 30
0.0
  9
$PUCSORGBACK
 10
0.0
 20
0.0
 30
0.0
  9
$USERI1
 70
     0
  9
$USERI2
 70
     0
  9
$USERI3
 70
     0
  9
$USERI4
 70
     0
  9
$USERI5
 70
     0
  9
$USERR1
 40
0.0
  9
$USERR2
 40
0.0
  9
$USERR3
 40
0.0
  9
$USERR4
 40
0.0
  9
$USERR5
 40
0.0
  9
$WORLDVIEW
 70
     1
  9
$SHADEDGE
 70
     3
  9
$SHADEDIF
 70
    70
  9
$TILEMODE
 70
     1
  9
$MAXACTVP
 70
    64
  9
$PINSBASE
 10
0.0
 20
0.0
 30
0.0
  9
$PLIMCHECK
 70
     0
  9
$PEXTMIN
 10
1.000000000000000E+20
 20
1.000000000000000E+20
 30
1.000000000000000E+20
  9
$PEXTMAX
 10
-1.000000000000000E+20
 20
-1.000000000000000E+20
 30
-1.000000000000000E+20
  9
$PLIMMIN
 10
0.0
 20
0.0
  9
$PLIMMAX
 10
12.0
 20
9.0
  9
$UNITMODE
 70
     0
  9
$VISRETAIN
 70
     1
  9
$PLINEGEN
 70
     0
  9
$PSLTSCALE
 70
     1
  9
$TREEDEPTH
 70
  3020
  9
$CMLSTYLE
  2
Standard
  9
$CMLJUST
 70
     0
  9
$CMLSCALE
 40
1.0
  9
$PROXYGRAPHICS
 70
     1
  9
$MEASUREMENT
 70
     0
  9
$CELWEIGHT
370
    -1
  9
$ENDCAPS
280
     0
  9
$JOINSTYLE
280
     0
  9
$LWDISPLAY
290
     0
  9
$INSUNITS
 70
     0
  9
$HYPERLINKBASE
  1

  9
$STYLESHEET
  1

  9
$XEDIT
290
     1
  9
$CEPSNTYPE
380
     0
  9
$PSTYLEMODE
290
     1
  9
$FINGERPRINTGUID
  2
{EDE8D4AD-F227-8748-96E5-F57B3686D2D7}
  9
$VERSIONGUID
  2
{8DD438B1-D162-9D44-AD61-D266ED7E7EDF}
  9
$EXTNAMES
290
     1
  9
$PSVPSCALE
 40
0.0
  9
$OLESTARTUP
290
     0
  9
$SORTENTS
280
   127
  9
$INDEXCTL
280
     0
  9
$HIDETEXT
280
     1
  9
$XCLIPFRAME
280
     2
  9
$HALOGAP
280
     0
  9
$OBSCOLOR
 70
   257
  9
$OBSLTYPE
280
     0
  9
$INTERSECTIONDISPLAY
280
     0
  9
$INTERSECTIONCOLOR
 70
   257
  9
$DIMASSOC
280
     2
  9
$PROJECTNAME
  1

  9
$CAMERADISPLAY
290
     0
  9
$LENSLENGTH
 40
50.0
  9
$CAMERAHEIGHT
 40
0.0
  9
$STEPSPERSEC
 40
2.0
  9
$STEPSIZE
 40
6.0
  9
$3DDWFPREC
 40
2.0
  9
$PSOLWIDTH
 40
0.25
  9
$PSOLHEIGHT
 40
4.0
  9
$LOFTANG1
 40
1.570796326794896
  9
$LOFTANG2
 40
1.570796326794896
  9
$LOFTMAG1
 40
0.0
  9
$LOFTMAG2
 40
0.0
  9
$LOFTPARAM
 70
     7
  9
$LOFTNORMALS
280
     1
  9
$LATITUDE
 40
37.795
  9
$LONGITUDE
 40
-122.394
  9
$NORTHDIRECTION
 40
0.0
  9
$TIMEZONE
 70
 -8000
  9
$LIGHTGLYPHDISPLAY
280
     1
  9
$TILEMODELIGHTSYNCH
280
     1
  9
$CMATERIAL
347
11
  9
$SOLIDHIST
280
     0
  9
$SHOWHIST
280
     1
  9
$DWFFRAME
280
     2
  9
$DGNFRAME
280
     0
  9
$REALWORLDSCALE
290
     1
  9
$INTERFERECOLOR
 62
     1
  9
$INTERFEREOBJVS
345
33
  9
$INTERFEREVPVS
346
30
  9
$CSHADOW
280
     0
  9
$SHADOWPLANELOCATION
 40
0.0
  0
ENDSEC
  0
SECTION
  2
CLASSES
  0
CLASS
  1
ACDBDICTIONARYWDFLT
  2
AcDbDictionaryWithDefault
  3
ObjectDBX Classes
 90
        0
 91
        1
280
     0
281
     0
  0
CLASS
  1
MATERIAL
  2
AcDbMaterial
  3
ObjectDBX Classes
 90
     1153
 91
        3
280
     0
281
     0
  0
CLASS
  1
VISUALSTYLE
  2
AcDbVisualStyle
  3
ObjectDBX Classes
 90
     4095
 91
       24
280
     0
281
     0
  0
CLASS
  1
SCALE
  2
AcDbScale
  3
ObjectDBX Classes
 90
     1153
 91
       17
280
     0
281
     0
  0
CLASS
  1
TABLESTYLE
  2
AcDbTableStyle
  3
ObjectDBX Classes
 90
     4095
 91
        1
280
     0
281
     0
  0
CLASS
  1
MLEADERSTYLE
  2
AcDbMLeaderStyle
  3
ACDB_MLEADERSTYLE_CLASS
 90
     4095
 91
        1
280
     0
281
     0
  0
CLASS
  1
ACDBSECTIONVIEWSTYLE
  2
AcDbSectionViewStyle
  3
ObjectDBX Classes
 90
     1025
 91
        1
280
     0
281
     0
  0
CLASS
  1
ACDBDETAILVIEWSTYLE
  2
AcDbDetailViewStyle
  3
ObjectDBX Classes
 90
     1025
 91
        1
280
     0
281
     0
  0
CLASS
  1
IRD_DSC_DICT
  2
CIrdDscDict
  3
"IRD"
 90
     1025
 91
        1
280
     0
281
     0
  0
CLASS
  1
IRD_DSC_RECORD
  2
CIrdDscRecord
  3
"IRD"
 90
     1025
 91
        5
280
     0
281
     0
  0
CLASS
  1
IRD_OBJ_RECORD
  2
CIrdObjRecord
  3
"IRD"
 90
     1025
 91
       10
280
     0
281
     0
  0
CLASS
  1
DICTIONARYVAR
  2
AcDbDictionaryVar
  3
ObjectDBX Classes
 90
        0
 91
        5
280
     0
281
     0
  0
CLASS
  1
CELLSTYLEMAP
  2
AcDbCellStyleMap
  3
ObjectDBX Classes
 90
     1152
 91
        1
280
     0
281
     0
  0
ENDSEC
  0
SECTION
  2
TABLES
  0
TABLE
  2
VPORT
  5
8
330
0
100
AcDbSymbolTable
 70
     1
1001
ACAD
1000
DbSaveVer
1071
      278
  0
VPORT
  5
57
330
8
100
AcDbSymbolTableRecord
100
AcDbViewportTableRecord
  2
*Active
 70
     0
 10
0.0
 20
0.0
 11
1.0
 21
1.0
 12
2586262.285
 22
1221418.452
 13
0.0
 23
0.0
 14
1.0
 24
1.0
 15
0.0
 25
0.0
 16
0.0
 26
0.0
 36
1.0
 17
0.0
 27
0.0
 37
0.0
 40
4728.109999999869
 41
1.50770392397809
 42
50.0
 43
0.0
 44
0.0
 50
0.0
 51
0.0
 71
     0
 72
  1000
 73
     1
 74
     1
 75
     0
 76
     0
 77
     0
 78
     0
281
     0
 65
     1
110
0.0
120
0.0
130
0.0
111
1.0
121
0.0
131
0.0
112
0.0
122
1.0
132
0.0
 79
     0
146
0.0
 60
     3
 61
     5
292
     1
282
     1
141
0.0
142
0.0
 63
   250
421
  3355443
  0
ENDTAB
  0
TABLE
  2
LTYPE
  5
5
330
0
100
AcDbSymbolTable
 70
     1
  0
LTYPE
  5
5B
330
5
100
AcDbSymbolTableRecord
100
AcDbLinetypeTableRecord
  2
ByBlock
 70
     0
  3

 72
    65
 73
     0
 40
0.0
  0
LTYPE
  5
5C
330
5
100
AcDbSymbolTableRecord
100
AcDbLinetypeTableRecord
  2
ByLayer
 70
     0
  3

 72
    65
 73
     0
 40
0.0
  0
LTYPE
  5
5D
330
5
100
AcDbSymbolTableRecord
100
AcDbLinetypeTableRecord
  2
Continuous
 70
     0
  3
Solid line
 72
    65
 73
     0
 40
0.0
  0
ENDTAB
  0
TABLE
  2
LAYER
  5
2
330
0
100
AcDbSymbolTable
 70
     2
  0
LAYER
  5
54
330
2
100
AcDbSymbolTableRecord
100
AcDbLayerTableRecord
  2
0
 70
     0
 62
     7
  6
Continuous
370
    -3
390
F
347
21
348
0
  0
LAYER
  5
80
330
2
100
AcDbSymbolTableRecord
100
AcDbLayerTableRecord
  2
quartiere
 70
     0
 62
    10
  6
Continuous
370
    -3
390
F
347
21
348
0
1001
AcAecLayerStandard
1000

1000

  0
ENDTAB
  0
TABLE
  2
STYLE
  5
3
330
0
100
AcDbSymbolTable
 70
     2
  0
STYLE
  5
55
330
3
100
AcDbSymbolTableRecord
100
AcDbTextStyleTableRecord
  2
Standard
 70
     0
 40
0.0
 41
1.0
 50
0.0
 71
     0
 42
0.2
  3
txt
  4

  0
STYLE
  5
5A
330
3
100
AcDbSymbolTableRecord
100
AcDbTextStyleTableRecord
  2
Annotative
 70
     0
 40
0.0
 41
1.0
 50
0.0
 71
     0
 42
0.2
  3
txt
  4

1001
AcadAnnotative
1000
AnnotativeData
1002
{
1070
     1
1070
     1
1002
}
  0
ENDTAB
  0
TABLE
  2
VIEW
  5
6
330
0
100
AcDbSymbolTable
 70
     0
  0
ENDTAB
  0
TABLE
  2
UCS
  5
7
330
0
100
AcDbSymbolTable
 70
     0
  0
ENDTAB
  0
TABLE
  2
APPID
  5
9
330
0
100
AcDbSymbolTable
 70
     5
  0
APPID
  5
56
330
9
100
AcDbSymbolTableRecord
100
AcDbRegAppTableRecord
  2
ACAD
 70
     0
  0
APPID
  5
5E
330
9
100
AcDbSymbolTableRecord
100
AcDbRegAppTableRecord
  2
AcadAnnotative
 70
     0
  0
APPID
  5
78
330
9
100
AcDbSymbolTableRecord
100
AcDbRegAppTableRecord
  2
REALDWG
 70
     0
  0
APPID
  5
79
330
9
100
AcDbSymbolTableRecord
100
AcDbRegAppTableRecord
  2
IRD
 70
     0
  0
APPID
  5
81
330
9
100
AcDbSymbolTableRecord
100
AcDbRegAppTableRecord
  2
AcAecLayerStandard
 70
     0
  0
ENDTAB
  0
TABLE
  2
DIMSTYLE
  5
A
330
0
100
AcDbSymbolTable
 70
     2
100
AcDbDimStyleTable
 71
     0
  0
DIMSTYLE
105
58
330
A
100
AcDbSymbolTableRecord
100
AcDbDimStyleTableRecord
  2
Standard
 70
     0
340
55
  0
DIMSTYLE
105
59
330
A
100
AcDbSymbolTableRecord
100
AcDbDimStyleTableRecord
  2
Annotative
 70
     0
340
55
1001
AcadAnnotative
1000
AnnotativeData
1002
{
1070
     1
1070
     1
1002
}
  0
ENDTAB
  0
TABLE
  2
BLOCK_RECORD
  5
1
330
0
100
AcDbSymbolTable
 70
     1
  0
BLOCK_RECORD
  5
70
330
1
100
AcDbSymbolTableRecord
100
AcDbBlockTableRecord
  2
*Model_Space
340
73
 70
     0
280
     1
281
     0
  0
BLOCK_RECORD
  5
6C
330
1
100
AcDbSymbolTableRecord
100
AcDbBlockTableRecord
  2
*Paper_Space
340
6F
 70
     0
280
     1
281
     0
  0
BLOCK_RECORD
  5
74
330
1
100
AcDbSymbolTableRecord
100
AcDbBlockTableRecord
  2
*Paper_Space0
340
77
 70
     0
280
     1
281
     0
  0
ENDTAB
  0
ENDSEC
  0
SECTION
  2
BLOCKS
  0
BLOCK
  5
71
330
70
100
AcDbEntity
  8
0
100
AcDbBlockBegin
  2
*Model_Space
 70
     0
 10
0.0
 20
0.0
 30
0.0
  3
*Model_Space
  1

  0
ENDBLK
  5
72
330
70
100
AcDbEntity
  8
0
100
AcDbBlockEnd
  0
BLOCK
  5
6D
330
6C
100
AcDbEntity
 67
     1
  8
0
100
AcDbBlockBegin
  2
*Paper_Space
 70
     0
 10
0.0
 20
0.0
 30
0.0
  3
*Paper_Space
  1

  0
ENDBLK
  5
6E
330
6C
100
AcDbEntity
 67
     1
  8
0
100
AcDbBlockEnd
  0
BLOCK
  5
75
330
74
100
AcDbEntity
 67
     1
  8
0
100
AcDbBlockBegin
  2
*Paper_Space0
 70
     0
 10
0.0
 20
0.0
 30
0.0
  3
*Paper_Space0
  1

  0
ENDBLK
  5
76
330
74
100
AcDbEntity
 67
     1
  8
0
100
AcDbBlockEnd
  0
ENDSEC
  0
SECTION
  2
ENTITIES
  0
LWPOLYLINE
  5
82
102
{ACAD_XDICTIONARY
360
83
102
}
330
70
100
AcDbEntity
  8
quartiere
100
AcDbPolyline
 90
      395
 70
     1
 43
0.0
 10
2586286.333
 20
1221080.505
 10
2586209.461
 20
1221194.651
 10
2586202.881000001
 20
1221195.791
 10
2586195.411
 20
1221206.931
 10
2586163.173
 20
1221213.745
 10
2586154.512
 20
1221215.624
 10
2586130.530000001
 20
1221220.102
 10
2586105.707
 20
1221217.477
 10
2586075.016
 20
1221218.991
 10
2586052.696
 20
1221228.261
 10
2586039.076
 20
1221233.462
 10
2586028.975
 20
1221233.683
 10
2586006.654
 20
1221234.186
 10
2585984.065
 20
1221243.187
 10
2585975.055
 20
1221247.208
 10
2585965.556
 20
1221250.598
 10
2585944.025
 20
1221255.699
 10
2585926.503
 20
1221269.951
 10
2585907.712
 20
1221282.51
 10
2585907.182
 20
1221283.281
 10
2585904.062
 20
1221286.7
 10
2585898.521
 20
1221292.47
 10
2585887.049
 20
1221305.6
 10
2585886.899
 20
1221305.77
 10
2585872.736
 20
1221315.119
 10
2585860.704
 20
1221321.408
 10
2585855.614
 20
1221326.038
 10
2585841.722
 20
1221341.428
 10
2585839.992
 20
1221341.478
 10
2585837.692
 20
1221344.698
 10
2585827.399
 20
1221358.088
 10
2585821.13
 20
1221365.988
 10
2585813.432
 20
1221375.218
 10
2585796.273
 20
1221387.909
 10
2585790.514
 20
1221394.019
 10
2585786.574
 20
1221395.539
 10
2585762.057
 20
1221425.11
 10
2585735.892
 20
1221398.226
 10
2585728.615
 20
1221387.548
 10
2585719.127
 20
1221381.063
 10
2585720.267000001
 20
1221379.464
 10
2585711.915
 20
1221372.332
 10
2585711.425
 20
1221372.802
 10
2585711.255
 20
1221372.632
 10
2585700.184
 20
1221361.292
 10
2585687.13
 20
1221347.844
 10
2585671.432
 20
1221331.489
 10
2585659.151000001
 20
1221318.708
 10
2585651.299000001
 20
1221310.649
 10
2585642.649
 20
1221301.78
 10
2585623.746
 20
1221282.4
 10
2585614.294
 20
1221272.736
 10
2585611.393
 20
1221269.247
 10
2585609.304
 20
1221265.563
 10
2585607.954
 20
1221261.58
 10
2585607.544
 20
1221257.406
 10
2585608.404
 20
1221254.075
 10
2585617.022
 20
1221241.396
 10
2585623.81
 20
1221231.49
 10
2585613.748
 20
1221224.904
 10
2585603.702
 20
1221217.923
 10
2585593.814
 20
1221211.061
 10
2585592.283
 20
1221208.532
 10
2585584.584
 20
1221195.619
 10
2585577.627
 20
1221183.995
 10
2585570.671000001
 20
1221172.372
 10
2585565.553
 20
1221163.841
 10
2585563.864
 20
1221161.03
 10
2585563.644
 20
1221160.67
 10
2585550.558
 20
1221152.078
 10
2585544.067
 20
1221147.847
 10
2585518.268
 20
1221130.856
 10
2585515.144
 20
1221155.689
 10
2585508.666
 20
1221161.38
 10
2585496.554
 20
1221164.897
 10
2585494.491
 20
1221160.266
 10
2585494.106
 20
1221158.278
 10
2585494.932
 20
1221154.366
 10
2585498.996
 20
1221143.201
 10
2585498.772
 20
1221140.306
 10
2585494.355
 20
1221135.674
 10
2585482.556
 20
1221122.368
 10
2585468.907
 20
1221105.397
 10
2585463.936
 20
1221100.827
 10
2585459.754
 20
1221097.865
 10
2585455.466
 20
1221095.058
 10
2585439.356000001
 20
1221085.627
 10
2585425.926
 20
1221077.634
 10
2585409.015
 20
1221069.123
 10
2585392.906
 20
1221062.503
 10
2585384.706
 20
1221059.833
 10
2585372.308
 20
1221056.588
 10
2585360.078
 20
1221053.897
 10
2585327.887
 20
1221054.906
 10
2585316.399
 20
1221055.012
 10
2585304.964
 20
1221053.906
 10
2585300.764
 20
1221052.856
 10
2585298.898
 20
1221073.839
 10
2585298.626
 20
1221078.509
 10
2585294.628
 20
1221078.373
 10
2585285.489
 20
1221077.948
 10
2585273.1
 20
1221074.104
 10
2585272.025
 20
1221076.795
 10
2585270.44
 20
1221079.566
 10
2585273.830000001
 20
1221081.766
 10
2585273.34
 20
1221082.546
 10
2585273.990000001
 20
1221082.976
 10
2585272.189
 20
1221112.843
 10
2585267.579
 20
1221120.832
 10
2585265.359
 20
1221119.822
 10
2585263.589000001
 20
1221123.132
 10
2585273.91
 20
1221129.251
 10
2585275.47
 20
1221131.02
 10
2585274.859
 20
1221140.907
 10
2585277.399
 20
1221146.894
 10
2585275.269
 20
1221173.212
 10
2585273.179
 20
1221175.163
 10
2585267.018
 20
1221183.413
 10
2585262.706
 20
1221189.269
 10
2585255.566
 20
1221199.612
 10
2585246.244
 20
1221213.809
 10
2585251.696
 20
1221216.779
 10
2585256.766
 20
1221220.19
 10
2585255.837
 20
1221230.831
 10
2585234.47
 20
1221258.434
 10
2585233.574
 20
1221258.187
 10
2585224.685
 20
1221252.588
 10
2585218.034
 20
1221248.149
 10
2585209.223
 20
1221257.559
 10
2585199.674
 20
1221248.728
 10
2585199.844
 20
1221245.939
 10
2585199.864
 20
1221244.929
 10
2585179.278
 20
1221222.447
 10
2585173.208
 20
1221215.405
 10
2585158.602
 20
1221198.368
 10
2585140.001
 20
1221184.474
 10
2585137.381
 20
1221180.184
 10
2585132.581
 20
1221172.314
 10
2585133.261
 20
1221171.784
 10
2585125.31
 20
1221162.794
 10
2585116.0
 20
1221157.144
 10
2585099.74
 20
1221158.116
 10
2585093.54
 20
1221139.816
 10
2585091.649
 20
1221131.986
 10
2585067.479
 20
1221106.605
 10
2585053.907
 20
1221088.034
 10
2585055.495
 20
1221084.204
 10
2585041.211
 20
1221068.692
 10
2585036.862
 20
1221066.013
 10
2585021.228
 20
1221054.882
 10
2585014.063
 20
1221048.875
 10
2585017.762
 20
1221042.607
 10
2584993.84
 20
1221014.796
 10
2584985.77
 20
1221006.976
 10
2584977.739
 20
1220999.367
 10
2584971.928
 20
1220994.166
 10
2584970.098000001
 20
1220990.807
 10
2584967.818
 20
1220989.087
 10
2584952.699
 20
1220976.444
 10
2584931.075
 20
1220950.45
 10
2584916.479
 20
1220933.197
 10
2584915.598000001
 20
1220932.117
 10
2584916.498
 20
1220931.487
 10
2584910.177000001
 20
1220922.726
 10
2584911.306
 20
1220921.986
 10
2584885.844
 20
1220896.258
 10
2584887.254
 20
1220894.478
 10
2584867.351
 20
1220876.238
 10
2584865.641
 20
1220877.058
 10
2584856.581
 20
1220868.489
 10
2584845.402
 20
1220858.759
 10
2584846.272
 20
1220854.92
 10
2584842.503
 20
1220850.74
 10
2584838.594
 20
1220848.88
 10
2584833.457
 20
1220845.671
 10
2584821.446
 20
1220834.342
 10
2584819.997
 20
1220835.752
 10
2584818.757
 20
1220834.312
 10
2584806.055
 20
1220821.181
 10
2584798.596
 20
1220814.714
 10
2584787.185
 20
1220806.08
 10
2584781.956
 20
1220800.5
 10
2584764.69
 20
1220782.251
 10
2584753.127
 20
1220772.192
 10
2584750.617
 20
1220770.122
 10
2584749.657000001
 20
1220771.422
 10
2584743.24
 20
1220769.651
 10
2584735.576
 20
1220766.87
 10
2584724.572
 20
1220761.858
 10
2584706.924
 20
1220750.158
 10
2584702.126
 20
1220746.61
 10
2584701.046
 20
1220745.03
 10
2584699.677000001
 20
1220735.54
 10
2584698.435
 20
1220732.039
 10
2584696.725
 20
1220731.569
 10
2584701.034
 20
1220727.319
 10
2584695.955
 20
1220726.359
 10
2584692.646
 20
1220725.559
 10
2584687.609
 20
1220723.359
 10
2584682.945
 20
1220720.45
 10
2584677.867
 20
1220716.571
 10
2584676.805
 20
1220714.92
 10
2584677.026
 20
1220710.991
 10
2584678.187
 20
1220707.551
 10
2584670.757
 20
1220701.421
 10
2584668.286
 20
1220701.801
 10
2584655.587
 20
1220696.459
 10
2584653.047
 20
1220694.829
 10
2584650.806
 20
1220692.719
 10
2584647.295
 20
1220689.489
 10
2584641.333
 20
1220684.748
 10
2584634.494
 20
1220681.979
 10
2584635.623
 20
1220681.078
 10
2584619.191000001
 20
1220669.075
 10
2584615.14
 20
1220666.113
 10
2584612.02
 20
1220665.16
 10
2584606.74
 20
1220660.548
 10
2584605.259
 20
1220658.919
 10
2584604.24
 20
1220657.488
 10
2584603.979
 20
1220655.989
 10
2584598.018
 20
1220650.87
 10
2584594.557
 20
1220646.121
 10
2584590.766
 20
1220643.171
 10
2584571.039
 20
1220636.154
 10
2584570.559
 20
1220635.274
 10
2584566.42
 20
1220635.352
 10
2584559.611
 20
1220635.19
 10
2584554.421
 20
1220634.549
 10
2584550.901
 20
1220633.539
 10
2584544.279000001
 20
1220654.094
 10
2584535.257000001
 20
1220644.438
 10
2584531.815
 20
1220638.902
 10
2584527.531
 20
1220630.607
 10
2584517.51
 20
1220630.798
 10
2584514.139
 20
1220625.998
 10
2584508.008
 20
1220619.012
 10
2584501.285
 20
1220612.906
 10
2584492.072000001
 20
1220605.3
 10
2584479.376
 20
1220594.885
 10
2584475.784
 20
1220592.035
 10
2584468.69
 20
1220586.396
 10
2584465.439
 20
1220583.836
 10
2584451.554000001
 20
1220576.348
 10
2584449.864
 20
1220578.412
 10
2584447.274
 20
1220574.031
 10
2584432.926
 20
1220565.882
 10
2584413.247
 20
1220554.745
 10
2584407.857
 20
1220551.666
 10
2584385.004
 20
1220538.642
 10
2584375.435
 20
1220533.162
 10
2584357.027
 20
1220526.753
 10
2584328.616
 20
1220513.528
 10
2584312.347
 20
1220504.698
 10
2584277.038
 20
1220496.953
 10
2584279.569
 20
1220492.594
 10
2584309.748
 20
1220497.259
 10
2584324.958
 20
1220498.491
 10
2584340.238
 20
1220499.548
 10
2584355.517
 20
1220499.912
 10
2584370.766
 20
1220499.914
 10
2584386.236
 20
1220499.58
 10
2584405.756000001
 20
1220497.818
 10
2584405.486
 20
1220495.668
 10
2584405.876
 20
1220495.308
 10
2584412.796
 20
1220494.547
 10
2584422.546
 20
1220492.936
 10
2584425.436
 20
1220493.525
 10
2584426.196
 20
1220493.485
 10
2584438.065
 20
1220491.432
 10
2584438.345000001
 20
1220493.222
 10
2584453.364
 20
1220492.909
 10
2584468.214000001
 20
1220489.848
 10
2584475.403
 20
1220480.686
 10
2584494.202
 20
1220476.483
 10
2584502.661
 20
1220482.945
 10
2584509.491
 20
1220480.166
 10
2584563.881
 20
1220466.4
 10
2584592.619
 20
1220458.071
 10
2584672.459
 20
1220432.339
 10
2584681.72
 20
1220426.011
 10
2584732.283
 20
1220407.266
 10
2584762.479
 20
1220392.746
 10
2584791.294
 20
1220375.662
 10
2584793.623
 20
1220377.535
 10
2584815.513
 20
1220337.681
 10
2584821.874
 20
1220334.447
 10
2584823.985
 20
1220333.365
 10
2584836.008
 20
1220327.225
 10
2584838.118
 20
1220326.154
 10
2584844.538
 20
1220322.923
 10
2584931.415
 20
1220275.413
 10
2584938.275
 20
1220269.713
 10
2584950.166
 20
1220259.552
 10
2585334.857
 20
1220058.089
 10
2585340.827
 20
1220053.899
 10
2585347.206
 20
1220050.319
 10
2585353.904000001
 20
1220047.41
 10
2585360.796
 20
1220044.91
 10
2585381.889
 20
1220037.729
 10
2585399.741
 20
1220035.341
 10
2585400.341
 20
1220043.08
 10
2585416.502
 20
1220086.277
 10
2585418.583
 20
1220091.846
 10
2585427.461
 20
1220115.629
 10
2585432.891
 20
1220130.178
 10
2585433.47
 20
1220145.718
 10
2585434.76
 20
1220152.659
 10
2585435.208
 20
1220165.07
 10
2585435.537
 20
1220174.102
 10
2585435.966
 20
1220186.163
 10
2585436.176
 20
1220191.173
 10
2585433.197
 20
1220221.248
 10
2585441.197
 20
1220220.948
 10
2585443.287
 20
1220220.958
 10
2585446.718
 20
1220221.499
 10
2585450.008
 20
1220222.599
 10
2585453.068
 20
1220224.279
 10
2585461.228
 20
1220230.378
 10
2585476.329
 20
1220241.64
 10
2585483.919
 20
1220247.25
 10
2585486.179
 20
1220243.88
 10
2585493.21
 20
1220249.16
 10
2585499.850000001
 20
1220254.13
 10
2585507.07
 20
1220259.56
 10
2585515.78
 20
1220266.08
 10
2585519.03
 20
1220268.51
 10
2585532.63
 20
1220278.701
 10
2585542.2
 20
1220285.811
 10
2585555.62
 20
1220295.85
 10
2585563.19
 20
1220301.53
 10
2585570.45
 20
1220306.96
 10
2585578.0
 20
1220312.611
 10
2585585.459
 20
1220318.181
 10
2585594.447
 20
1220324.921
 10
2585622.03
 20
1220345.559
 10
2585639.17
 20
1220358.388
 10
2585656.823
 20
1220369.262
 10
2585786.614
 20
1220456.312
 10
2585801.809
 20
1220466.497
 10
2585829.612000001
 20
1220485.133
 10
2585862.835
 20
1220507.368
 10
2585862.405
 20
1220507.997
 10
2585870.989
 20
1220513.711
 10
2585870.509
 20
1220514.411
 10
2585872.409
 20
1220515.68
 10
2585885.282
 20
1220522.354
 10
2585897.979
 20
1220531.042
 10
2585911.341
 20
1220540.24
 10
2585915.782
 20
1220543.287
 10
2585926.886
 20
1220552.419
 10
2585964.756
 20
1220581.001
 10
2585983.098
 20
1220594.885
 10
2585997.444
 20
1220605.791
 10
2586004.422
 20
1220611.061
 10
2586011.381
 20
1220616.371
 10
2586018.399
 20
1220621.701
 10
2586031.437
 20
1220631.582
 10
2586022.457
 20
1220643.481
 10
2586018.759
 20
1220648.391
 10
2586018.164
 20
1220649.108
 10
2586017.429
 20
1220649.68
 10
2586016.58
 20
1220650.105
 10
2586015.660000001
 20
1220650.34
 10
2586015.482
 20
1220662.67
 10
2586010.142
 20
1220663.72
 10
2585979.595000001
 20
1220669.748
 10
2586013.766
 20
1220693.769
 10
2586017.745
 20
1220687.519
 10
2586025.804
 20
1220674.89
 10
2586068.594
 20
1220705.412
 10
2586070.984
 20
1220702.183
 10
2586077.204
 20
1220693.713
 10
2586079.634
 20
1220690.494
 10
2586127.931
 20
1220723.872
 10
2586145.035
 20
1220735.659
 10
2586177.38
 20
1220757.955
 10
2586217.582
 20
1220785.664
 10
2586224.633
 20
1220790.523
 10
2586230.643
 20
1220791.603
 10
2586230.513
 20
1220794.583
 10
2586237.404
 20
1220799.342
 10
2586247.985
 20
1220805.151
 10
2586261.556
 20
1220812.802
 10
2586265.186000001
 20
1220814.682
 10
2586267.046000001
 20
1220815.382
 10
2586278.617
 20
1220818.751
 10
2586292.977
 20
1220822.82
 10
2586311.068
 20
1220826.399
 10
2586309.854
 20
1220831.972
 10
2586364.036
 20
1220841.133
 10
2586384.903
 20
1220849.486
 10
2586426.555
 20
1220873.88
 10
2586431.138
 20
1220867.779
 10
2586462.709
 20
1220886.279
 10
2586311.032000001
 20
1221009.095
  0
LWPOLYLINE
  5
85
102
{ACAD_XDICTIONARY
360
86
102
}
330
70
100
AcDbEntity
  8
quartiere
100
AcDbPolyline
 90
      285
 70
     1
 43
0.0
 10
2583142.377
 20
1219758.018
 10
2583107.751
 20
1219772.313
 10
2583094.565
 20
1219759.349
 10
2583064.042
 20
1219772.295
 10
2583025.824
 20
1219736.661
 10
2583021.721
 20
1219728.589
 10
2583040.780000001
 20
1219721.131
 10
2583040.584
 20
1219713.071
 10
2583033.27
 20
1219700.109
 10
2583029.597
 20
1219688.976
 10
2583020.853
 20
1219672.512
 10
2583014.493
 20
1219675.362
 10
2583004.473
 20
1219684.032
 10
2582998.393
 20
1219691.762
 10
2582986.133
 20
1219701.923
 10
2582964.266
 20
1219719.996
 10
2582948.172
 20
1219732.814
 10
2582935.572
 20
1219740.784
 10
2582932.592
 20
1219737.814
 10
2582931.474
 20
1219736.363
 10
2582918.628
 20
1219719.693
 10
2582916.933
 20
1219717.494
 10
2582909.913
 20
1219709.614
 10
2582899.213
 20
1219699.854
 10
2582871.774
 20
1219678.595
 10
2582868.473
 20
1219682.245
 10
2582832.204
 20
1219655.165
 10
2582821.224
 20
1219647.805
 10
2582813.134000001
 20
1219645.396
 10
2582785.214000001
 20
1219659.396
 10
2582773.514
 20
1219670.716
 10
2582752.314
 20
1219682.297
 10
2582736.264
 20
1219688.147
 10
2582712.454
 20
1219693.248
 10
2582697.99
 20
1219710.235
 10
2582723.182
 20
1219734.97
 10
2582754.22
 20
1219750.466
 10
2582794.047
 20
1219767.221
 10
2582835.785
 20
1219744.231
 10
2582854.226
 20
1219737.905
 10
2582886.38
 20
1219735.572
 10
2582873.695
 20
1219748.602
 10
2582869.887
 20
1219760.409
 10
2582882.765
 20
1219774.439
 10
2582922.674
 20
1219818.012
 10
2582925.833
 20
1219821.873
 10
2582936.939
 20
1219835.531
 10
2582952.648
 20
1219854.837
 10
2582965.416
 20
1219845.179
 10
2582966.328000001
 20
1219844.484
 10
2582978.928
 20
1219861.806
 10
2582991.557
 20
1219879.179
 10
2583005.054
 20
1219897.755
 10
2583027.485
 20
1219904.441
 10
2583028.594
 20
1219906.322
 10
2583047.141
 20
1219937.811
 10
2583048.162
 20
1219939.527
 10
2583058.63
 20
1219957.24
 10
2583082.264
 20
1219999.586
 10
2583089.643
 20
1220012.817
 10
2583104.399
 20
1220032.296
 10
2583124.32
 20
1220058.59
 10
2583128.932
 20
1220059.478
 10
2583139.742
 20
1220073.988
 10
2583154.908
 20
1220094.284
 10
2583156.849
 20
1220092.583
 10
2583164.606
 20
1220103.03
 10
2583179.086
 20
1220122.584
 10
2583186.106
 20
1220132.043
 10
2583193.035
 20
1220133.913
 10
2583207.823
 20
1220132.856
 10
2583222.722
 20
1220133.518
 10
2583245.755
 20
1220137.667
 10
2583253.794
 20
1220141.477
 10
2583259.857
 20
1220146.283
 10
2583266.497
 20
1220149.224
 10
2583279.532
 20
1220149.055
 10
2583290.184
 20
1220150.935
 10
2583294.183
 20
1220152.885
 10
2583311.764
 20
1220157.442
 10
2583327.873
 20
1220158.903
 10
2583336.143
 20
1220159.133
 10
2583346.639
 20
1220159.409
 10
2583352.430000001
 20
1220162.367
 10
2583357.292
 20
1220164.332
 10
2583370.501
 20
1220167.282
 10
2583375.339
 20
1220167.316
 10
2583383.726
 20
1220167.375
 10
2583385.397
 20
1220168.304
 10
2583384.676
 20
1220168.806
 10
2583385.617
 20
1220169.924
 10
2583386.697
 20
1220169.074
 10
2583387.087
 20
1220169.314
 10
2583375.577
 20
1220185.555
 10
2583399.778
 20
1220201.811
 10
2583444.227
 20
1220214.765
 10
2583476.789
 20
1220227.497
 10
2583478.48
 20
1220228.367
 10
2583491.44
 20
1220235.016
 10
2583520.803
 20
1220250.124
 10
2583537.956
 20
1220237.092
 10
2583542.217000001
 20
1220237.382
 10
2583544.896
 20
1220237.583
 10
2583545.996
 20
1220237.643
 10
2583564.09
 20
1220247.456
 10
2583578.908
 20
1220255.531
 10
2583583.348
 20
1220257.962
 10
2583597.038
 20
1220261.062
 10
2583618.3
 20
1220265.83
 10
2583625.212
 20
1220264.537
 10
2583633.413
 20
1220267.316
 10
2583659.135
 20
1220257.884
 10
2583666.535
 20
1220258.554
 10
2583670.656
 20
1220244.928
 10
2583690.378
 20
1220259.574
 10
2583691.968
 20
1220257.034
 10
2583678.617
 20
1220248.557
 10
2583667.426
 20
1220239.791
 10
2583667.936000001
 20
1220239.031
 10
2583650.555000001
 20
1220225.528
 10
2583630.954
 20
1220214.957
 10
2583617.784
 20
1220209.208
 10
2583590.154
 20
1220200.793
 10
2583585.763
 20
1220198.872
 10
2583562.713
 20
1220178.28
 10
2583556.706
 20
1220170.664
 10
2583554.129
 20
1220165.413
 10
2583553.783
 20
1220159.712
 10
2583557.317
 20
1220134.998
 10
2583557.188
 20
1220131.467
 10
2583556.177000001
 20
1220128.548
 10
2583558.375
 20
1220123.131
 10
2583559.475
 20
1220123.411
 10
2583561.945
 20
1220119.244
 10
2583629.41
 20
1220157.348
 10
2583629.88
 20
1220156.478
 10
2583697.962
 20
1220195.442
 10
2583732.548
 20
1220213.72
 10
2583731.977
 20
1220214.45
 10
2583740.915
 20
1220219.091
 10
2583760.373
 20
1220229.261
 10
2583788.165
 20
1220245.42
 10
2583822.947000001
 20
1220265.952
 10
2583867.814
 20
1220290.664
 10
2583868.195
 20
1220289.743
 10
2583904.37
 20
1220309.945
 10
2583920.316
 20
1220318.85
 10
2583899.906
 20
1220360.402
 10
2583914.739
 20
1220373.224
 10
2583923.938
 20
1220375.454
 10
2583924.618
 20
1220373.854
 10
2583961.88
 20
1220386.862
 10
2583963.56
 20
1220382.513
 10
2583972.201
 20
1220387.174
 10
2583976.86
 20
1220391.533
 10
2583985.702
 20
1220401.549
 10
2583997.541
 20
1220406.96
 10
2584014.252
 20
1220409.273
 10
2584030.681
 20
1220411.863
 10
2584053.098
 20
1220419.889
 10
2584051.43
 20
1220423.902
 10
2584046.716
 20
1220428.415
 10
2584048.356
 20
1220431.643
 10
2584057.894
 20
1220434.649
 10
2584064.862
 20
1220436.117
 10
2584080.842
 20
1220438.476
 10
2584085.794
 20
1220439.68
 10
2584095.227
 20
1220440.867
 10
2584102.423
 20
1220439.878
 10
2584109.799
 20
1220440.238
 10
2584119.575
 20
1220442.26
 10
2584123.164
 20
1220437.178
 10
2584156.042
 20
1220448.961
 10
2584191.48
 20
1220472.479
 10
2584213.25
 20
1220481.407
 10
2584237.459
 20
1220483.958
 10
2584231.869
 20
1220465.618
 10
2584208.252
 20
1220457.477
 10
2584146.454
 20
1220433.092
 10
2584145.965
 20
1220425.401
 10
2584147.124
 20
1220423.5
 10
2584147.344000001
 20
1220423.11
 10
2584151.624
 20
1220416.131
 10
2584156.305
 20
1220410.131
 10
2584160.675
 20
1220404.531
 10
2584184.362
 20
1220374.159
 10
2584185.541
 20
1220372.669
 10
2584186.233
 20
1220372.695
 10
2584183.186
 20
1220333.82
 10
2584141.391
 20
1220337.581
 10
2584138.407000001
 20
1220337.673
 10
2584135.43
 20
1220337.454
 10
2584132.482
 20
1220336.923
 10
2584129.605
 20
1220336.086
 10
2584115.384
 20
1220331.468
 10
2584115.303
 20
1220331.615
 10
2584091.756
 20
1220323.92
 10
2584076.812
 20
1220319.15
 10
2584062.348000001
 20
1220314.233
 10
2584045.218
 20
1220308.529
 10
2584046.508
 20
1220290.32
 10
2584045.747
 20
1220286.008
 10
2584019.706
 20
1220284.375
 10
2583965.082
 20
1220277.102
 10
2583944.589
 20
1220265.278
 10
2583893.124
 20
1220244.581
 10
2583901.527
 20
1220229.91
 10
2583882.016
 20
1220218.99
 10
2583865.466
 20
1220209.716
 10
2583842.967000001
 20
1220197.14
 10
2583820.764
 20
1220185.126
 10
2583800.864
 20
1220174.377
 10
2583780.629
 20
1220163.46
 10
2583744.898
 20
1220144.151
 10
2583735.254
 20
1220138.161
 10
2583726.027
 20
1220132.422
 10
2583696.601
 20
1220114.145
 10
2583675.842
 20
1220101.245
 10
2583643.693
 20
1220058.036
 10
2583638.378
 20
1220050.885
 10
2583632.901
 20
1220043.515
 10
2583598.731
 20
1220036.407
 10
2583588.575000001
 20
1220034.296
 10
2583575.465
 20
1220037.938
 10
2583569.195
 20
1220036.61
 10
2583561.219
 20
1220034.792
 10
2583554.318
 20
1220033.472
 10
2583542.57
 20
1220026.619
 10
2583537.24
 20
1220022.429
 10
2583533.04
 20
1220019.108
 10
2583528.68
 20
1220015.087
 10
2583523.76
 20
1220009.575
 10
2583520.06
 20
1220004.384
 10
2583492.741
 20
1219979.317
 10
2583458.194
 20
1219937.162
 10
2583434.37
 20
1219924.758
 10
2583415.189
 20
1219914.757
 10
2583396.552
 20
1219905.043
 10
2583386.671
 20
1219907.564
 10
2583378.32
 20
1219902.885
 10
2583369.369
 20
1219896.516
 10
2583347.946
 20
1219879.806
 10
2583332.21
 20
1219867.535
 10
2583324.832
 20
1219867.136
 10
2583314.013
 20
1219857.636
 10
2583294.729
 20
1219840.675
 10
2583304.298
 20
1219827.399
 10
2583293.514
 20
1219818.448
 10
2583285.195
 20
1219823.725
 10
2583281.199
 20
1219824.114
 10
2583279.18
 20
1219823.764
 10
2583256.134
 20
1219802.878
 10
2583238.814
 20
1219772.856
 10
2583235.015
 20
1219766.275
 10
2583241.944
 20
1219762.786
 10
2583230.887
 20
1219748.895
 10
2583226.578
 20
1219744.854
 10
2583213.68
 20
1219732.782
 10
2583205.542
 20
1219727.401
 10
2583197.335
 20
1219721.338
 10
2583177.716
 20
1219705.598
 10
2583155.941
 20
1219687.476
 10
2583141.13
 20
1219673.567
 10
2583139.871
 20
1219672.233
 10
2583121.064
 20
1219652.377
 10
2583082.574
 20
1219611.113
 10
2583070.754
 20
1219598.811
 10
2583062.054
 20
1219609.211
 10
2583055.214
 20
1219620.091
 10
2583043.904000001
 20
1219642.241
 10
2583045.884
 20
1219643.831
 10
2583057.768000001
 20
1219652.948
 10
2583063.089
 20
1219657.244
 10
2583068.321
 20
1219661.748
 10
2583073.453
 20
1219666.313
 10
2583078.515
 20
1219671.098
 10
2583083.538
 20
1219675.924
 10
2583088.49
 20
1219680.859
 10
2583096.715
 20
1219689.443
 10
2583107.712
 20
1219701.243
 10
2583117.0
 20
1219711.691
 10
2583121.699
 20
1219716.952
 10
2583126.288
 20
1219722.252
 10
2583130.877
 20
1219727.543
 10
2583135.606
 20
1219746.8
  0
LWPOLYLINE
  5
88
102
{ACAD_XDICTIONARY
360
89
102
}
330
70
100
AcDbEntity
  8
quartiere
100
AcDbPolyline
 90
      340
 70
     1
 43
0.0
 10
2586311.032000001
 20
1221009.095
 10
2586286.333
 20
1221080.505
 10
2586209.461
 20
1221194.651
 10
2586202.881000001
 20
1221195.791
 10
2586195.411
 20
1221206.931
 10
2586154.784
 20
1221215.565
 10
2586155.881
 20
1221221.58
 10
2586154.512
 20
1221215.624
 10
2586130.530000001
 20
1221220.102
 10
2586105.707
 20
1221217.477
 10
2586075.016
 20
1221218.991
 10
2586052.696
 20
1221228.261
 10
2586039.076
 20
1221233.462
 10
2586028.975
 20
1221233.683
 10
2586006.654
 20
1221234.186
 10
2585984.065
 20
1221243.187
 10
2585975.055
 20
1221247.208
 10
2585965.556
 20
1221250.598
 10
2585944.025
 20
1221255.699
 10
2585926.503
 20
1221269.951
 10
2585907.712
 20
1221282.51
 10
2585907.182
 20
1221283.281
 10
2585904.062
 20
1221286.7
 10
2585898.521
 20
1221292.47
 10
2585887.049
 20
1221305.6
 10
2585886.899
 20
1221305.77
 10
2585872.736
 20
1221315.119
 10
2585860.704
 20
1221321.408
 10
2585855.614
 20
1221326.038
 10
2585841.722
 20
1221341.428
 10
2585839.992
 20
1221341.478
 10
2585837.692
 20
1221344.698
 10
2585827.399
 20
1221358.088
 10
2585821.13
 20
1221365.988
 10
2585813.432
 20
1221375.218
 10
2585796.273
 20
1221387.909
 10
2585790.514
 20
1221394.019
 10
2585786.574
 20
1221395.539
 10
2585762.057
 20
1221425.11
 10
2585735.892
 20
1221398.226
 10
2585728.615
 20
1221387.548
 10
2585719.127
 20
1221381.063
 10
2585720.267000001
 20
1221379.464
 10
2585711.915
 20
1221372.332
 10
2585711.425
 20
1221372.802
 10
2585711.255
 20
1221372.632
 10
2585700.184
 20
1221361.292
 10
2585687.13
 20
1221347.844
 10
2585671.432
 20
1221331.489
 10
2585659.151000001
 20
1221318.708
 10
2585651.299000001
 20
1221310.649
 10
2585642.649
 20
1221301.78
 10
2585623.746
 20
1221282.4
 10
2585614.294
 20
1221272.736
 10
2585611.393
 20
1221269.247
 10
2585609.304
 20
1221265.563
 10
2585607.954
 20
1221261.58
 10
2585607.544
 20
1221257.406
 10
2585608.404
 20
1221254.075
 10
2585586.567
 20
1221280.774
 10
2585594.197
 20
1221290.803
 10
2585594.158
 20
1221297.481
 10
2585594.099
 20
1221311.319
 10
2585594.041000001
 20
1221330.446
 10
2585594.03
 20
1221339.895
 10
2585594.0
 20
1221349.354
 10
2585593.971
 20
1221358.794
 10
2585593.931
 20
1221368.253
 10
2585593.862
 20
1221388.253
 10
2585593.823
 20
1221402.113
 10
2585593.802
 20
1221409.053
 10
2585593.746
 20
1221428.408
 10
2585587.555
 20
1221431.559
 10
2585567.206
 20
1221432.413
 10
2585554.485
 20
1221448.772
 10
2585554.206
 20
1221449.131
 10
2585569.207
 20
1221458.302
 10
2585573.447000001
 20
1221464.742
 10
2585580.167
 20
1221470.293
 10
2585579.757
 20
1221470.822
 10
2585590.806
 20
1221481.994
 10
2585581.825000001
 20
1221492.193
 10
2585603.181
 20
1221512.925
 10
2585599.45
 20
1221516.884
 10
2585611.212
 20
1221529.546
 10
2585612.073
 20
1221530.176
 10
2585626.767
 20
1221541.039
 10
2585628.557
 20
1221538.979
 10
2585630.539
 20
1221540.511
 10
2585657.933000001
 20
1221561.721
 10
2585643.42
 20
1221579.27
 10
2585650.235
 20
1221585.124
 10
2585650.416
 20
1221584.914
 10
2585675.114
 20
1221604.55
 10
2585681.203
 20
1221609.768
 10
2585681.419000001
 20
1221609.555
 10
2585682.637000001
 20
1221610.748
 10
2585691.331
 20
1221620.676
 10
2585704.223
 20
1221605.42
 10
2585736.102
 20
1221632.219
 10
2585750.903
 20
1221644.832
 10
2585771.361
 20
1221624.297
 10
2585774.181
 20
1221621.468
 10
2585774.671
 20
1221618.128
 10
2585775.24
 20
1221615.189
 10
2585777.44
 20
1221603.712
 10
2585777.409
 20
1221601.023
 10
2585783.078000001
 20
1221606.194
 10
2585782.149
 20
1221606.623
 10
2585780.829
 20
1221608.772
 10
2585779.44
 20
1221611.571
 10
2585778.041000001
 20
1221615.75
 10
2585777.081
 20
1221620.059
 10
2585776.511
 20
1221624.438
 10
2585776.481
 20
1221628.868
 10
2585776.772
 20
1221633.278
 10
2585777.372
 20
1221637.678
 10
2585779.542
 20
1221646.128
 10
2585780.072
 20
1221647.079
 10
2585786.411
 20
1221658.651
 10
2585803.893
 20
1221688.363
 10
2585804.193
 20
1221688.013
 10
2585814.695
 20
1221702.264
 10
2585818.796
 20
1221712.904
 10
2585821.598000001
 20
1221720.277
 10
2585822.799
 20
1221724.2
 10
2585824.781
 20
1221730.704
 10
2585826.21
 20
1221734.651
 10
2585835.56
 20
1221724.141
 10
2585841.927
 20
1221730.466
 10
2585853.154
 20
1221743.652
 10
2585852.044
 20
1221744.962
 10
2585858.335000001
 20
1221750.684
 10
2585863.073
 20
1221741.091
 10
2585882.632
 20
1221759.331
 10
2585883.332
 20
1221759.891
 10
2585896.351
 20
1221770.418
 10
2585893.191
 20
1221777.238
 10
2585887.990000001
 20
1221790.087
 10
2585895.13
 20
1221793.278
 10
2585895.58
 20
1221792.778
 10
2585916.768
 20
1221806.146
 10
2585917.578
 20
1221806.666
 10
2585919.168
 20
1221804.936
 10
2585933.147
 20
1221813.546
 10
2585935.117
 20
1221814.766
 10
2585948.516
 20
1221821.366
 10
2585949.936
 20
1221819.246
 10
2585961.855
 20
1221829.226
 10
2585959.815
 20
1221831.316
 10
2585966.955
 20
1221838.855
 10
2585960.585
 20
1221846.475
 10
2585963.865
 20
1221849.625
 10
2585966.334
 20
1221852.625
 10
2585969.744
 20
1221856.495
 10
2585967.534
 20
1221858.405
 10
2585978.394
 20
1221867.166
 10
2585979.804
 20
1221868.286
 10
2585980.974
 20
1221869.216
 10
2585985.524
 20
1221872.876
 10
2585992.255
 20
1221877.236
 10
2586002.184
 20
1221883.636
 10
2586012.621
 20
1221890.385
 10
2586018.773
 20
1221881.086
 10
2586019.593
 20
1221881.676
 10
2586018.952
 20
1221882.595
 10
2586034.844
 20
1221893.888
 10
2586043.614
 20
1221881.538
 10
2586049.954
 20
1221873.428
 10
2586062.623
 20
1221882.199
 10
2586075.443
 20
1221890.69
 10
2586088.552
 20
1221898.901
 10
2586100.709
 20
1221907.233
 10
2586120.958
 20
1221922.452
 10
2586149.723000001
 20
1221946.708
 10
2586194.873
 20
1221984.71
 10
2586202.605
 20
1221992.08
 10
2586209.591
 20
1222000.148
 10
2586216.604
 20
1222009.418
 10
2586222.415
 20
1222019.469
 10
2586229.077
 20
1222033.583
 10
2586229.219
 20
1222036.686
 10
2586227.357
 20
1222039.173
 10
2586224.302000001
 20
1222039.747
 10
2586224.227
 20
1222049.533
 10
2586219.147
 20
1222057.633
 10
2586216.267000001
 20
1222063.055
 10
2586206.836
 20
1222074.415
 10
2586203.336
 20
1222079.661
 10
2586220.676
 20
1222095.845
 10
2586227.267
 20
1222101.014
 10
2586232.548
 20
1222104.594
 10
2586246.38
 20
1222113.662
 10
2586254.901
 20
1222118.932
 10
2586267.233
 20
1222125.322
 10
2586280.754000001
 20
1222132.483
 10
2586289.476
 20
1222135.933
 10
2586293.647
 20
1222141.815
 10
2586291.397
 20
1222143.964
 10
2586307.999
 20
1222155.933
 10
2586313.109
 20
1222163.852
 10
2586314.479
 20
1222164.272
 10
2586297.224
 20
1222189.12
 10
2586308.591
 20
1222198.475
 10
2586321.084
 20
1222208.808
 10
2586323.865000001
 20
1222204.69
 10
2586328.394
 20
1222208.227
 10
2586343.623
 20
1222220.075
 10
2586345.903
 20
1222220.934
 10
2586354.742000001
 20
1222222.363
 10
2586363.413
 20
1222226.502
 10
2586372.362
 20
1222216.864
 10
2586386.264
 20
1222232.723
 10
2586398.014
 20
1222245.992
 10
2586378.902
 20
1222263.027
 10
2586403.895
 20
1222276.522
 10
2586408.654
 20
1222276.073
 10
2586417.621
 20
1222268.147
 10
2586424.138
 20
1222275.526
 10
2586429.224
 20
1222282.237
 10
2586433.377
 20
1222288.121
 10
2586433.667
 20
1222288.841
 10
2586433.627
 20
1222289.591
 10
2586433.269
 20
1222290.246
 10
2586432.679
 20
1222290.696
 10
2586431.929
 20
1222290.904
 10
2586430.978
 20
1222291.914
 10
2586429.362
 20
1222298.055
 10
2586451.263
 20
1222296.103
 10
2586450.165
 20
1222292.578
 10
2586451.671
 20
1222289.208
 10
2586455.512
 20
1222287.661
 10
2586459.273
 20
1222289.392
 10
2586464.204
 20
1222294.229
 10
2586476.665
 20
1222306.497
 10
2586493.077
 20
1222322.676
 10
2586512.92
 20
1222341.75
 10
2586517.13
 20
1222345.009
 10
2586521.64
 20
1222347.897
 10
2586526.371
 20
1222350.325
 10
2586531.342
 20
1222352.274
 10
2586536.443
 20
1222353.741
 10
2586540.455
 20
1222355.806
 10
2586567.396
 20
1222356.145
 10
2586566.418
 20
1222346.06
 10
2586565.439
 20
1222343.478
 10
2586560.9
 20
1222339.184
 10
2586577.556
 20
1222317.446
 10
2586583.737
 20
1222309.818
 10
2586590.129000001
 20
1222302.399
 10
2586595.727
 20
1222293.619
 10
2586598.844
 20
1222286.769
 10
2586599.933
 20
1222284.779
 10
2586603.929
 20
1222272.41
 10
2586607.498
 20
1222258.02
 10
2586603.47
 20
1222251.26
 10
2586623.769
 20
1222235.963
 10
2586627.548
 20
1222230.203
 10
2586626.147
 20
1222228.613
 10
2586638.182000001
 20
1222213.924
 10
2586639.092
 20
1222212.444
 10
2586642.242
 20
1222206.794
 10
2586651.242
 20
1222188.836
 10
2586669.642
 20
1222177.766
 10
2586668.712
 20
1222172.166
 10
2586704.491
 20
1222121.639
 10
2586702.341
 20
1222120.098
 10
2586713.796
 20
1222104.162
 10
2586723.129
 20
1222091.14
 10
2586732.469000001
 20
1222078.13
 10
2586743.905
 20
1222062.218
 10
2586754.72
 20
1222047.09
 10
2586765.025
 20
1222032.718
 10
2586784.206
 20
1222005.967
 10
2586798.074
 20
1221986.442
 10
2586812.064
 20
1221969.161
 10
2586823.903
 20
1221954.539
 10
2586835.717
 20
1221939.929
 10
2586848.413
 20
1221924.216
 10
2586864.271
 20
1221904.719
 10
2586877.826
 20
1221888.04
 10
2586891.318
 20
1221871.427
 10
2586905.684
 20
1221854.074
 10
2586921.042
 20
1221842.197
 10
2586930.952
 20
1221830.427
 10
2586931.622
 20
1221829.796
 10
2586932.419
 20
1221829.336
 10
2586933.321
 20
1221829.181
 10
2586934.235
 20
1221829.225
 10
2586934.443
 20
1221816.267
 10
2586932.353
 20
1221812.478
 10
2586939.379
 20
1221789.031
 10
2586943.0
 20
1221783.57
 10
2586965.403
 20
1221756.124
 10
2586961.153
 20
1221753.132
 10
2586988.637
 20
1221719.454
 10
2586991.407000001
 20
1221716.064
 10
2586995.538
 20
1221712.114
 10
2586980.618
 20
1221690.782
 10
2586976.006
 20
1221681.383
 10
2586985.016
 20
1221665.114
 10
2586975.564
 20
1221658.584
 10
2586967.753
 20
1221651.695
 10
2586960.592
 20
1221643.635
 10
2586954.651
 20
1221635.265
 10
2586922.843
 20
1221584.864
 10
2586899.588
 20
1221548.003
 10
2586886.311
 20
1221526.951
 10
2586893.551
 20
1221510.681
 10
2586901.579
 20
1221499.161
 10
2586907.289
 20
1221500.262
 10
2586923.216
 20
1221479.711
 10
2586924.466000001
 20
1221478.091
 10
2586927.066
 20
1221475.43
 10
2586931.685
 20
1221465.21
 10
2586954.827
 20
1221414.135
 10
2586976.3
 20
1221408.184
 10
2586987.091000001
 20
1221384.383
 10
2586944.499
 20
1221357.226
 10
2586910.526
 20
1221335.536
 10
2586893.344
 20
1221324.575
 10
2586873.151
 20
1221311.684
 10
2586861.952
 20
1221305.173
 10
2586850.521
 20
1221299.143
 10
2586824.281
 20
1221285.78
 10
2586801.748
 20
1221274.296
 10
2586747.187
 20
1221246.502
 10
2586739.296
 20
1221242.469
 10
2586732.433
 20
1221240.073
 10
2586725.2
 20
1221239.568
 10
2586718.088
 20
1221241.035
 10
2586705.603
 20
1221231.403
 10
2586679.876
 20
1221217.857
 10
2586685.868
 20
1221188.364
 10
2586675.718
 20
1221185.822
 10
2586653.608
 20
1221181.312
 10
2586651.258
 20
1221192.7
 10
2586619.829
 20
1221188.069
 10
2586488.412
 20
1221128.174
 10
2586419.806
 20
1221083.058
  0
LWPOLYLINE
  5
8B
102
{ACAD_XDICTIONARY
360
8C
102
}
330
70
100
AcDbEntity
  8
quartiere
100
AcDbPolyline
 90
      335
 70
     1
 43
0.0
 10
2587545.82
 20
1222227.085
 10
2587545.82
 20
1222227.085
 10
2587543.65
 20
1222225.316
 10
2587539.601
 20
1222221.507
 10
2587527.584
 20
1222208.984
 10
2587523.862000001
 20
1222205.403
 10
2587521.003
 20
1222202.813
 10
2587515.207
 20
1222198.227
 10
2587496.956
 20
1222184.497
 10
2587481.78
 20
1222173.058
 10
2587459.361
 20
1222156.166
 10
2587451.562
 20
1222150.288
 10
2587446.643
 20
1222146.589
 10
2587441.723000001
 20
1222142.88
 10
2587436.802
 20
1222139.17
 10
2587431.881
 20
1222135.471
 10
2587424.528
 20
1222129.93
 10
2587418.696
 20
1222125.54
 10
2587398.309
 20
1222110.213
 10
2587379.93
 20
1222096.395
 10
2587353.644
 20
1222076.594
 10
2587352.302000001
 20
1222075.574
 10
2587344.524
 20
1222069.753
 10
2587318.925
 20
1222050.515
 10
2587309.008
 20
1222043.086
 10
2587307.715
 20
1221963.477
 10
2587306.806
 20
1221954.898
 10
2587305.387
 20
1221946.409
 10
2587303.608
 20
1221939.319
 10
2587303.278
 20
1221938.009
 10
2587302.386
 20
1221935.555
 10
2587300.428
 20
1221930.169
 10
2587297.388
 20
1221923.088
 10
2587293.438000001
 20
1221915.569
 10
2587289.199
 20
1221908.89
 10
2587284.238
 20
1221902.149
 10
2587248.398
 20
1221860.06
 10
2587239.499
 20
1221851.589
 10
2587231.909
 20
1221844.06
 10
2587226.58
 20
1221838.19
 10
2587219.959
 20
1221830.621
 10
2587210.26
 20
1221819.293
 10
2587207.61
 20
1221816.573
 10
2587201.301
 20
1221811.334
 10
2587199.061000001
 20
1221809.775
 10
2587196.751
 20
1221808.315
 10
2587189.14
 20
1221805.055
 10
2587189.401
 20
1221804.446
 10
2587185.601
 20
1221802.586
 10
2587177.511
 20
1221798.738
 10
2587175.842
 20
1221797.499
 10
2587170.473
 20
1221792.103
 10
2587168.524
 20
1221789.985
 10
2587168.253000001
 20
1221790.293
 10
2587166.284
 20
1221788.035
 10
2587160.173
 20
1221780.321
 10
2587153.702
 20
1221771.355
 10
2587143.534
 20
1221754.953
 10
2587130.902
 20
1221742.401
 10
2587132.452
 20
1221740.671
 10
2587123.191
 20
1221732.27
 10
2587112.941
 20
1221724.798
 10
2587100.121
 20
1221717.697
 10
2587068.222
 20
1221703.307
 10
2586994.148
 20
1221669.962
 10
2586985.016
 20
1221665.114
 10
2586976.006
 20
1221681.383
 10
2586980.618
 20
1221690.782
 10
2586995.538
 20
1221712.114
 10
2586991.407000001
 20
1221716.064
 10
2586988.637
 20
1221719.454
 10
2586961.153
 20
1221753.132
 10
2586965.403
 20
1221756.124
 10
2586943.0
 20
1221783.57
 10
2586939.379
 20
1221789.031
 10
2586932.353
 20
1221812.478
 10
2586934.443
 20
1221816.267
 10
2586934.235
 20
1221829.225
 10
2586933.321
 20
1221829.181
 10
2586932.419
 20
1221829.336
 10
2586931.622
 20
1221829.796
 10
2586930.952
 20
1221830.427
 10
2586921.042
 20
1221842.197
 10
2586905.684
 20
1221854.074
 10
2586891.318
 20
1221871.427
 10
2586877.826
 20
1221888.04
 10
2586864.271
 20
1221904.719
 10
2586848.413
 20
1221924.216
 10
2586835.717
 20
1221939.929
 10
2586823.903
 20
1221954.539
 10
2586812.064
 20
1221969.161
 10
2586798.074
 20
1221986.442
 10
2586784.206
 20
1222005.967
 10
2586765.025
 20
1222032.718
 10
2586754.72
 20
1222047.09
 10
2586743.905
 20
1222062.218
 10
2586732.469000001
 20
1222078.13
 10
2586723.129
 20
1222091.14
 10
2586713.796
 20
1222104.162
 10
2586702.341
 20
1222120.098
 10
2586704.491
 20
1222121.639
 10
2586668.712
 20
1222172.166
 10
2586669.642
 20
1222177.766
 10
2586651.242
 20
1222188.836
 10
2586642.242
 20
1222206.794
 10
2586639.092
 20
1222212.444
 10
2586638.182000001
 20
1222213.924
 10
2586626.147
 20
1222228.613
 10
2586627.548
 20
1222230.203
 10
2586623.769
 20
1222235.963
 10
2586603.47
 20
1222251.26
 10
2586607.498
 20
1222258.02
 10
2586603.929
 20
1222272.41
 10
2586599.933
 20
1222284.779
 10
2586598.844
 20
1222286.769
 10
2586595.727
 20
1222293.619
 10
2586590.129000001
 20
1222302.399
 10
2586583.737
 20
1222309.818
 10
2586577.556
 20
1222317.446
 10
2586560.9
 20
1222339.184
 10
2586565.439
 20
1222343.478
 10
2586566.418
 20
1222346.06
 10
2586567.396
 20
1222356.145
 10
2586540.455
 20
1222355.806
 10
2586536.443
 20
1222353.741
 10
2586531.342
 20
1222352.274
 10
2586526.371
 20
1222350.325
 10
2586521.64
 20
1222347.897
 10
2586517.13
 20
1222345.009
 10
2586512.92
 20
1222341.75
 10
2586493.077
 20
1222322.676
 10
2586476.665
 20
1222306.497
 10
2586464.204
 20
1222294.229
 10
2586459.273
 20
1222289.392
 10
2586455.512
 20
1222287.661
 10
2586451.671
 20
1222289.208
 10
2586450.165
 20
1222292.578
 10
2586451.263
 20
1222296.103
 10
2586429.362
 20
1222298.055
 10
2586422.373
 20
1222293.525
 10
2586409.529
 20
1222313.668
 10
2586407.919
 20
1222316.187
 10
2586396.213
 20
1222334.615
 10
2586398.31
 20
1222351.176
 10
2586420.858
 20
1222373.997
 10
2586420.438
 20
1222374.577
 10
2586427.23
 20
1222380.948
 10
2586428.580000001
 20
1222381.238
 10
2586454.424
 20
1222405.872
 10
2586454.794000001
 20
1222405.382
 10
2586471.47
 20
1222422.365
 10
2586485.82
 20
1222436.704
 10
2586492.411
 20
1222443.174
 10
2586492.75
 20
1222442.804
 10
2586513.971
 20
1222463.792
 10
2586513.291000001
 20
1222464.412
 10
2586515.291
 20
1222466.102
 10
2586496.222
 20
1222482.955
 10
2586535.75
 20
1222515.401
 10
2586554.84
 20
1222531.901
 10
2586561.272
 20
1222533.909
 10
2586586.493
 20
1222568.968
 10
2586607.64
 20
1222596.809
 10
2586609.539
 20
1222599.3
 10
2586619.408
 20
1222617.699
 10
2586620.649
 20
1222625.028
 10
2586622.719
 20
1222631.058
 10
2586626.668
 20
1222636.779
 10
2586634.208
 20
1222642.798
 10
2586647.799
 20
1222651.597
 10
2586651.378
 20
1222655.168
 10
2586669.358
 20
1222679.786
 10
2586679.907
 20
1222695.118
 10
2586701.037
 20
1222730.426
 10
2586716.048
 20
1222758.454
 10
2586729.898000001
 20
1222747.514
 10
2586811.319
 20
1222722.243
 10
2586809.73
 20
1222695.763
 10
2586815.55
 20
1222678.334
 10
2586819.5
 20
1222672.684
 10
2586810.69
 20
1222665.044
 10
2586820.841
 20
1222642.343
 10
2586826.643000001
 20
1222642.374
 10
2586829.241
 20
1222644.565
 10
2586833.223000001
 20
1222641.857
 10
2586836.932
 20
1222638.784
 10
2586842.031
 20
1222633.247
 10
2586846.185
 20
1222626.971
 10
2586847.063
 20
1222627.378
 10
2586849.117
 20
1222622.569
 10
2586850.584
 20
1222617.55
 10
2586857.163
 20
1222620.337
 10
2586863.747
 20
1222601.411
 10
2586873.572
 20
1222589.318
 10
2586887.552
 20
1222580.249
 10
2586889.693
 20
1222582.229
 10
2586898.631
 20
1222582.774
 10
2586900.46
 20
1222582.886
 10
2586905.389
 20
1222584.479
 10
2586911.908
 20
1222586.611
 10
2586918.416
 20
1222588.714
 10
2586932.555
 20
1222593.249
 10
2586931.083
 20
1222599.625
 10
2586931.602
 20
1222617.228
 10
2586909.116
 20
1222618.645
 10
2586888.161
 20
1222625.017
 10
2586854.735
 20
1222655.514
 10
2586854.657
 20
1222656.4
 10
2586829.743
 20
1222678.61
 10
2586830.119
 20
1222679.578
 10
2586827.18
 20
1222689.644
 10
2586825.82
 20
1222703.364
 10
2586831.22
 20
1222720.894
 10
2586867.95
 20
1222689.355
 10
2586879.13
 20
1222670.894
 10
2586897.031
 20
1222654.124
 10
2586913.614
 20
1222671.829
 10
2586908.626
 20
1222676.878
 10
2586887.436
 20
1222704.857
 10
2586870.56
 20
1222738.055
 10
2586870.659
 20
1222748.724
 10
2586879.05
 20
1222751.694
 10
2586891.759
 20
1222756.356
 10
2586892.990000001
 20
1222757.804
 10
2586882.6
 20
1222770.562
 10
2586900.854
 20
1222803.859
 10
2586884.571
 20
1222818.322
 10
2586913.044
 20
1222869.62
 10
2586911.054
 20
1222879.67
 10
2586922.685
 20
1222910.187
 10
2586945.81
 20
1222899.287
 10
2586981.299
 20
1222916.635
 10
2587008.585
 20
1222914.236
 10
2587020.076
 20
1222908.72
 10
2587043.212
 20
1222945.561
 10
2587072.699
 20
1222993.424
 10
2587078.656
 20
1222989.785
 10
2587089.370000001
 20
1222934.213
 10
2587098.024000001
 20
1222888.858
 10
2587102.892
 20
1222862.862
 10
2587127.215
 20
1222881.485
 10
2587131.974
 20
1222885.144
 10
2587186.109000001
 20
1222955.818
 10
2587229.795
 20
1223010.881
 10
2587238.994
 20
1223013.58
 10
2587232.116
 20
1223000.122
 10
2587209.609
 20
1222971.406
 10
2587208.700000001
 20
1222962.989
 10
2587210.318
 20
1222959.467
 10
2587213.418
 20
1222957.976
 10
2587216.537
 20
1222956.434
 10
2587219.687
 20
1222957.494
 10
2587233.055
 20
1222961.991
 10
2587239.025
 20
1222957.34
 10
2587249.126000001
 20
1222949.4
 10
2587269.208
 20
1222933.219
 10
2587278.081
 20
1222940.37
 10
2587299.17
 20
1222955.998
 10
2587306.537
 20
1222965.344
 10
2587313.207
 20
1222973.219
 10
2587319.459
 20
1222978.705
 10
2587321.520000001
 20
1222980.711
 10
2587333.37
 20
1222985.251
 10
2587347.517
 20
1222991.408
 10
2587361.487000001
 20
1222998.261
 10
2587375.116
 20
1223005.812
 10
2587388.466
 20
1223013.862
 10
2587401.625
 20
1223022.202
 10
2587444.624
 20
1223050.63
 10
2587446.704
 20
1223047.33
 10
2587461.838
 20
1223055.893
 10
2587496.774000001
 20
1223075.66
 10
2587596.95
 20
1223132.35
 10
2587592.091
 20
1223138.429
 10
2587628.393000001
 20
1223158.068
 10
2587655.675
 20
1223130.459
 10
2587616.324
 20
1223099.148
 10
2587598.124
 20
1223080.078
 10
2587601.036
 20
1223075.968
 10
2587603.526
 20
1223072.423
 10
2587567.194
 20
1223046.565
 10
2587559.785
 20
1223041.284
 10
2587547.055000001
 20
1223032.233
 10
2587534.385
 20
1223023.143
 10
2587545.184
 20
1223012.568
 10
2587557.467
 20
1222992.177
 10
2587556.647
 20
1222991.657
 10
2587557.118
 20
1222990.887
 10
2587590.11
 20
1222937.606
 10
2587597.04
 20
1222926.586
 10
2587565.918
 20
1222907.117
 10
2587577.34
 20
1222888.876
 10
2587656.887
 20
1222761.757
 10
2587661.747
 20
1222753.997
 10
2587658.686000001
 20
1222751.747
 10
2587660.416000001
 20
1222748.987
 10
2587666.828
 20
1222753.687
 10
2587693.039
 20
1222772.958
 10
2587694.239
 20
1222773.838
 10
2587716.570000001
 20
1222790.247
 10
2587721.179
 20
1222793.637
 10
2587778.461
 20
1222701.869
 10
2587793.262
 20
1222678.158
 10
2587779.072
 20
1222671.957
 10
2587773.983
 20
1222669.727
 10
2587769.073
 20
1222667.587
 10
2587764.003
 20
1222665.366
 10
2587759.074
 20
1222663.216
 10
2587753.994
 20
1222660.996
 10
2587749.104
 20
1222658.856
 10
2587739.645
 20
1222654.725
 10
2587730.994000001
 20
1222650.945
 10
2587723.654
 20
1222647.734
 10
2587738.477
 20
1222624.823
 10
2587749.127
 20
1222608.353
 10
2587735.217
 20
1222599.983
 10
2587688.143
 20
1222568.846
 10
2587679.512
 20
1222557.387
 10
2587680.875
 20
1222555.304
 10
2587661.582
 20
1222542.788
 10
2587566.951
 20
1222481.176
 10
2587551.61
 20
1222471.167
 10
2587546.62
 20
1222466.237
 10
2587542.711000001
 20
1222458.681
 10
2587593.172
 20
1222381.597
 10
2587578.247
 20
1222370.474
 10
2587587.766
 20
1222358.309
 10
2587589.932
 20
1222355.328
 10
2587591.982
 20
1222352.267
 10
2587601.401
 20
1222337.025
 10
2587634.669
 20
1222283.843
 10
2587634.489
 20
1222283.103
 10
2587553.381
 20
1222232.346
 10
2587550.811
 20
1222230.676
 10
2587548.29
 20
1222228.925
  0
LWPOLYLINE
  5
8E
102
{ACAD_XDICTIONARY
360
8F
102
}
330
70
100
AcDbEntity
  8
quartiere
100
AcDbPolyline
 90
      586
 70
     1
 43
0.0
 10
2584517.51
 20
1220630.798
 10
2584513.29
 20
1220632.687
 10
2584491.138
 20
1220639.173
 10
2584463.253
 20
1220644.1
 10
2584461.922
 20
1220646.404
 10
2584433.43
 20
1220697.177
 10
2584459.514
 20
1220711.113
 10
2584464.848
 20
1220721.217
 10
2584514.433000001
 20
1220747.327
 10
2584513.945
 20
1220754.374
 10
2584512.249
 20
1220757.721
 10
2584523.423
 20
1220764.523
 10
2584524.561
 20
1220763.238
 10
2584544.433
 20
1220776.477
 10
2584582.481
 20
1220800.652
 10
2584583.976
 20
1220799.51
 10
2584590.807
 20
1220799.402
 10
2584603.179
 20
1220806.967
 10
2584601.039
 20
1220810.097
 10
2584590.047
 20
1220826.377
 10
2584582.696
 20
1220837.26
 10
2584574.423
 20
1220850.725
 10
2584584.722
 20
1220872.976
 10
2584581.612
 20
1220876.026
 10
2584587.994
 20
1220883.732
 10
2584591.962
 20
1220890.926
 10
2584600.623
 20
1220905.26
 10
2584603.233
 20
1220909.479
 10
2584613.334
 20
1220926.423
 10
2584617.695
 20
1220933.785
 10
2584622.985
 20
1220943.736
 10
2584626.095
 20
1220951.476
 10
2584631.4
 20
1220973.991
 10
2584631.651
 20
1220974.987
 10
2584630.351
 20
1220975.457
 10
2584632.099
 20
1220984.212
 10
2584635.98
 20
1220982.492
 10
2584645.619
 20
1221004.837
 10
2584652.428
 20
1221025.796
 10
2584651.024
 20
1221027.219
 10
2584665.204
 20
1221045.464
 10
2584689.136
 20
1221065.168
 10
2584703.704
 20
1221076.876
 10
2584718.414
 20
1221087.28
 10
2584719.574
 20
1221085.81
 10
2584722.254
 20
1221088.171
 10
2584728.523
 20
1221091.002
 10
2584735.593
 20
1221095.283
 10
2584754.279
 20
1221105.075
 10
2584761.168
 20
1221109.492
 10
2584768.539
 20
1221115.465
 10
2584769.659
 20
1221115.935
 10
2584776.809
 20
1221120.756
 10
2584789.927
 20
1221131.497
 10
2584792.366
 20
1221133.367
 10
2584797.514
 20
1221136.074
 10
2584803.512
 20
1221138.117
 10
2584806.401
 20
1221139.594
 10
2584804.372
 20
1221141.997
 10
2584817.474
 20
1221149.806
 10
2584818.694
 20
1221148.356
 10
2584830.886
 20
1221157.104
 10
2584843.195
 20
1221165.736
 10
2584855.575
 20
1221174.393
 10
2584861.806
 20
1221179.282
 10
2584868.761
 20
1221185.434
 10
2584871.268
 20
1221188.084
 10
2584873.15
 20
1221191.172
 10
2584874.264
 20
1221194.715
 10
2584874.888
 20
1221199.986
 10
2584875.387
 20
1221202.634
 10
2584876.578
 20
1221205.567
 10
2584879.255
 20
1221209.824
 10
2584885.503000001
 20
1221222.606
 10
2584874.02
 20
1221226.588
 10
2584857.393
 20
1221233.008
 10
2584850.378
 20
1221241.247
 10
2584850.661
 20
1221243.187
 10
2584862.164
 20
1221261.188
 10
2584866.496
 20
1221271.028
 10
2584873.663
 20
1221287.315
 10
2584876.356
 20
1221300.307
 10
2584877.355
 20
1221299.825
 10
2584895.219
 20
1221311.443
 10
2584902.528
 20
1221316.702
 10
2584910.406
 20
1221329.11
 10
2584942.901
 20
1221319.397
 10
2584939.753
 20
1221332.061
 10
2584938.062
 20
1221336.847
 10
2584937.713
 20
1221342.636
 10
2584936.747
 20
1221364.088
 10
2584938.981
 20
1221371.779
 10
2584949.271000001
 20
1221406.555
 10
2584961.706
 20
1221451.187
 10
2584952.233
 20
1221469.31
 10
2584951.071
 20
1221512.273
 10
2584944.807
 20
1221512.422
 10
2584942.986000001
 20
1221528.114
 10
2584935.907
 20
1221548.224
 10
2584936.698
 20
1221554.523
 10
2584936.013
 20
1221557.352
 10
2584933.856
 20
1221566.236
 10
2584923.728
 20
1221588.873
 10
2584922.654
 20
1221600.261
 10
2584924.81
 20
1221618.76
 10
2584933.588
 20
1221644.896
 10
2584942.945
 20
1221661.452
 10
2584952.68
 20
1221678.686
 10
2584960.105
 20
1221691.795
 10
2584962.252
 20
1221696.501
 10
2584998.338000001
 20
1221773.337
 10
2585015.953
 20
1221804.627
 10
2585019.433000001
 20
1221839.64
 10
2585021.011
 20
1221851.398
 10
2585030.085
 20
1221873.877
 10
2585035.585
 20
1221902.053
 10
2585049.043
 20
1221920.59
 10
2585061.025
 20
1221936.085
 10
2585069.822
 20
1221954.909
 10
2585075.14
 20
1221973.322
 10
2585078.007
 20
1221990.146
 10
2585079.257
 20
1221994.656
 10
2585084.179
 20
1222003.254
 10
2585087.919000001
 20
1222007.324
 10
2585099.350000001
 20
1222012.073
 10
2585110.401
 20
1222015.901
 10
2585114.021000001
 20
1222017.3
 10
2585122.782
 20
1222021.329
 10
2585134.352
 20
1222023.58
 10
2585138.023
 20
1222024.039
 10
2585142.173
 20
1222024.059
 10
2585147.499
 20
1222023.674
 10
2585151.292
 20
1222023.4
 10
2585198.249
 20
1221969.119
 10
2585298.444
 20
1222006.087
 10
2585324.205
 20
1221995.677
 10
2585345.965
 20
1221992.227
 10
2585346.775
 20
1221992.077
 10
2585350.095000001
 20
1221992.217
 10
2585440.889
 20
1221834.093
 10
2585449.837
 20
1221837.983
 10
2585478.365
 20
1221844.597
 10
2585499.683
 20
1221856.957
 10
2585510.862
 20
1221863.697
 10
2585518.982
 20
1221869.287
 10
2585532.262
 20
1221872.059
 10
2585531.202
 20
1221870.209
 10
2585529.992
 20
1221866.929
 10
2585527.442
 20
1221861.53
 10
2585509.82
 20
1221832.48
 10
2585518.956
 20
1221822.773
 10
2585520.966
 20
1221823.793
 10
2585528.176
 20
1221827.493
 10
2585542.178
 20
1221836.266
 10
2585557.096
 20
1221846.725
 10
2585570.512
 20
1221856.824
 10
2585579.572
 20
1221865.726
 10
2585581.143
 20
1221864.266
 10
2585590.042
 20
1221873.914
 10
2585592.151
 20
1221877.933
 10
2585598.36
 20
1221880.882
 10
2585601.9
 20
1221883.233
 10
2585606.009
 20
1221886.723
 10
2585620.298
 20
1221902.364
 10
2585646.715
 20
1221917.426
 10
2585653.866
 20
1221924.623
 10
2585688.566
 20
1221943.863
 10
2585692.705
 20
1221940.624
 10
2585699.526
 20
1221940.273
 10
2585708.377
 20
1221941.803
 10
2585736.188
 20
1221949.693
 10
2585745.719
 20
1221951.333
 10
2585745.469
 20
1221956.163
 10
2585756.322
 20
1222000.207
 10
2585735.49
 20
1221990.095
 10
2585725.021
 20
1222011.636
 10
2585729.732
 20
1222013.377
 10
2585763.48
 20
1222029.754
 10
2585766.761
 20
1222043.295
 10
2585754.307
 20
1222037.248
 10
2585752.205999999
 20
1222038.856
 10
2585734.103
 20
1222052.71
 10
2585746.112000001
 20
1222068.388
 10
2585749.792
 20
1222073.178
 10
2585755.963
 20
1222081.227
 10
2585772.825
 20
1222068.321
 10
2585773.794
 20
1222072.341
 10
2585779.644
 20
1222078.49
 10
2585793.266
 20
1222085.721
 10
2585796.626
 20
1222084.051
 10
2585801.781
 20
1222093.954
 10
2585805.996
 20
1222100.609
 10
2585808.826
 20
1222104.069
 10
2585820.207
 20
1222118.0
 10
2585833.717
 20
1222134.53
 10
2585835.137
 20
1222136.27
 10
2585836.707
 20
1222138.2
 10
2585846.433
 20
1222154.455
 10
2585867.265
 20
1222188.848
 10
2585900.675
 20
1222241.67
 10
2585922.152
 20
1222259.847
 10
2585965.351
 20
1222292.58
 10
2586050.521
 20
1222182.429
 10
2586068.611
 20
1222204.94
 10
2586113.682
 20
1222253.724
 10
2586122.592000001
 20
1222261.615
 10
2586132.613
 20
1222268.237
 10
2586142.193
 20
1222272.719
 10
2586136.333
 20
1222281.158
 10
2586162.793
 20
1222321.673
 10
2586170.542
 20
1222333.528
 10
2586151.602
 20
1222342.651
 10
2586136.512
 20
1222346.122
 10
2586125.452
 20
1222347.63
 10
2586125.572
 20
1222348.23
 10
2586114.6
 20
1222349.56
 10
2586102.901
 20
1222351.879
 10
2586098.101
 20
1222352.357
 10
2586098.091
 20
1222352.588
 10
2586080.492
 20
1222353.264
 10
2586169.616
 20
1222428.873
 10
2586156.664
 20
1222461.131
 10
2586180.396
 20
1222468.752
 10
2586222.479
 20
1222478.313
 10
2586225.059
 20
1222474.303
 10
2586230.539
 20
1222466.704
 10
2586238.309
 20
1222446.904
 10
2586234.049
 20
1222434.124
 10
2586213.26
 20
1222419.326
 10
2586218.651
 20
1222412.066
 10
2586219.621
 20
1222409.907
 10
2586219.671
 20
1222408.247
 10
2586219.091
 20
1222405.827
 10
2586218.151
 20
1222405.126
 10
2586214.58
 20
1222405.086
 10
2586212.31
 20
1222403.215
 10
2586208.469
 20
1222399.405
 10
2586201.877
 20
1222393.385
 10
2586197.747
 20
1222388.665
 10
2586192.506000001
 20
1222382.735
 10
2586208.234
 20
1222312.289
 10
2586212.083
 20
1222303.211
 10
2586210.563
 20
1222301.213
 10
2586212.732
 20
1222299.546
 10
2586215.084
 20
1222303.12
 10
2586214.734
 20
1222306.299
 10
2586216.214
 20
1222306.199
 10
2586224.386
 20
1222314.434
 10
2586231.148
 20
1222307.513
 10
2586233.709
 20
1222310.052
 10
2586235.109
 20
1222310.222
 10
2586243.782
 20
1222318.512
 10
2586255.002
 20
1222329.981
 10
2586260.641
 20
1222336.919
 10
2586270.092
 20
1222351.097
 10
2586274.432
 20
1222349.387
 10
2586283.803
 20
1222341.887
 10
2586309.284
 20
1222337.547
 10
2586334.107
 20
1222297.119
 10
2586357.904
 20
1222317.621
 10
2586372.915
 20
1222330.267
 10
2586397.82
 20
1222351.756
 10
2586398.31
 20
1222351.176
 10
2586396.213
 20
1222334.615
 10
2586407.919
 20
1222316.187
 10
2586409.529
 20
1222313.668
 10
2586422.373
 20
1222293.525
 10
2586429.362
 20
1222298.055
 10
2586430.978
 20
1222291.914
 10
2586431.929
 20
1222290.904
 10
2586432.679
 20
1222290.696
 10
2586433.269
 20
1222290.246
 10
2586433.627
 20
1222289.591
 10
2586433.667
 20
1222288.841
 10
2586433.377
 20
1222288.121
 10
2586429.224
 20
1222282.237
 10
2586424.138
 20
1222275.526
 10
2586417.621
 20
1222268.147
 10
2586408.654
 20
1222276.073
 10
2586403.895
 20
1222276.522
 10
2586378.902
 20
1222263.027
 10
2586398.014
 20
1222245.992
 10
2586386.264
 20
1222232.723
 10
2586372.362
 20
1222216.864
 10
2586363.413
 20
1222226.502
 10
2586354.742000001
 20
1222222.363
 10
2586345.903
 20
1222220.934
 10
2586343.623
 20
1222220.075
 10
2586328.394
 20
1222208.227
 10
2586323.865000001
 20
1222204.69
 10
2586321.084
 20
1222208.808
 10
2586308.591
 20
1222198.475
 10
2586297.224
 20
1222189.12
 10
2586314.479
 20
1222164.272
 10
2586313.109
 20
1222163.852
 10
2586307.999
 20
1222155.933
 10
2586291.397
 20
1222143.964
 10
2586293.647
 20
1222141.815
 10
2586289.476
 20
1222135.933
 10
2586280.754000001
 20
1222132.483
 10
2586267.233
 20
1222125.322
 10
2586254.901
 20
1222118.932
 10
2586246.38
 20
1222113.662
 10
2586232.548
 20
1222104.594
 10
2586227.267
 20
1222101.014
 10
2586220.676
 20
1222095.845
 10
2586203.336
 20
1222079.661
 10
2586206.836
 20
1222074.415
 10
2586216.267000001
 20
1222063.055
 10
2586219.147
 20
1222057.633
 10
2586224.227
 20
1222049.533
 10
2586224.302000001
 20
1222039.747
 10
2586227.357
 20
1222039.173
 10
2586229.219
 20
1222036.686
 10
2586229.077
 20
1222033.583
 10
2586222.415
 20
1222019.469
 10
2586216.604
 20
1222009.418
 10
2586209.591
 20
1222000.148
 10
2586202.605
 20
1221992.08
 10
2586194.873
 20
1221984.71
 10
2586149.723000001
 20
1221946.708
 10
2586120.958
 20
1221922.452
 10
2586100.709
 20
1221907.233
 10
2586088.552
 20
1221898.901
 10
2586075.443
 20
1221890.69
 10
2586062.623
 20
1221882.199
 10
2586049.954
 20
1221873.428
 10
2586043.614
 20
1221881.538
 10
2586034.844
 20
1221893.888
 10
2586018.952
 20
1221882.595
 10
2586019.593
 20
1221881.676
 10
2586018.773
 20
1221881.086
 10
2586012.621
 20
1221890.385
 10
2586002.184
 20
1221883.636
 10
2585992.255
 20
1221877.236
 10
2585985.524
 20
1221872.876
 10
2585980.974
 20
1221869.216
 10
2585979.804
 20
1221868.286
 10
2585978.394
 20
1221867.166
 10
2585967.534
 20
1221858.405
 10
2585969.744
 20
1221856.495
 10
2585966.334
 20
1221852.625
 10
2585963.865
 20
1221849.625
 10
2585960.585
 20
1221846.475
 10
2585966.955
 20
1221838.855
 10
2585959.815
 20
1221831.316
 10
2585961.855
 20
1221829.226
 10
2585949.936
 20
1221819.246
 10
2585948.516
 20
1221821.366
 10
2585935.117
 20
1221814.766
 10
2585933.147
 20
1221813.546
 10
2585919.168
 20
1221804.936
 10
2585917.578
 20
1221806.666
 10
2585916.768
 20
1221806.146
 10
2585895.58
 20
1221792.778
 10
2585895.13
 20
1221793.278
 10
2585887.990000001
 20
1221790.087
 10
2585893.191
 20
1221777.238
 10
2585896.351
 20
1221770.418
 10
2585883.332
 20
1221759.891
 10
2585882.632
 20
1221759.331
 10
2585863.073
 20
1221741.091
 10
2585858.335000001
 20
1221750.684
 10
2585852.044
 20
1221744.962
 10
2585853.154
 20
1221743.652
 10
2585841.927
 20
1221730.466
 10
2585835.56
 20
1221724.141
 10
2585826.21
 20
1221734.651
 10
2585824.781
 20
1221730.704
 10
2585822.799
 20
1221724.2
 10
2585821.598000001
 20
1221720.277
 10
2585818.796
 20
1221712.904
 10
2585814.695
 20
1221702.264
 10
2585804.193
 20
1221688.013
 10
2585803.893
 20
1221688.363
 10
2585786.411
 20
1221658.651
 10
2585780.072
 20
1221647.079
 10
2585779.542
 20
1221646.128
 10
2585777.372
 20
1221637.678
 10
2585776.772
 20
1221633.278
 10
2585776.481
 20
1221628.868
 10
2585776.511
 20
1221624.438
 10
2585777.081
 20
1221620.059
 10
2585778.041000001
 20
1221615.75
 10
2585779.44
 20
1221611.571
 10
2585780.829
 20
1221608.772
 10
2585782.149
 20
1221606.623
 10
2585783.078000001
 20
1221606.194
 10
2585777.409
 20
1221601.023
 10
2585777.44
 20
1221603.712
 10
2585775.24
 20
1221615.189
 10
2585774.671
 20
1221618.128
 10
2585774.181
 20
1221621.468
 10
2585771.361
 20
1221624.297
 10
2585750.903
 20
1221644.832
 10
2585736.102
 20
1221632.219
 10
2585704.223
 20
1221605.42
 10
2585691.331
 20
1221620.676
 10
2585682.637000001
 20
1221610.748
 10
2585681.419000001
 20
1221609.555
 10
2585681.203
 20
1221609.768
 10
2585675.114
 20
1221604.55
 10
2585650.416
 20
1221584.914
 10
2585650.235
 20
1221585.124
 10
2585643.42
 20
1221579.27
 10
2585657.933000001
 20
1221561.721
 10
2585630.539
 20
1221540.511
 10
2585628.557
 20
1221538.979
 10
2585626.767
 20
1221541.039
 10
2585612.073
 20
1221530.176
 10
2585611.212
 20
1221529.546
 10
2585599.45
 20
1221516.884
 10
2585603.181
 20
1221512.925
 10
2585581.825000001
 20
1221492.193
 10
2585590.806
 20
1221481.994
 10
2585579.757
 20
1221470.822
 10
2585580.167
 20
1221470.293
 10
2585573.447000001
 20
1221464.742
 10
2585569.207
 20
1221458.302
 10
2585554.206
 20
1221449.131
 10
2585550.906
 20
1221453.571
 10
2585540.884
 20
1221446.311
 10
2585535.532
 20
1221442.461
 10
2585529.981
 20
1221438.462
 10
2585526.537
 20
1221435.876
 10
2585520.692
 20
1221431.488
 10
2585519.61
 20
1221430.675
 10
2585522.877
 20
1221426.278
 10
2585512.089
 20
1221418.435
 10
2585497.257
 20
1221408.542
 10
2585493.236
 20
1221406.024
 10
2585491.017
 20
1221404.562
 10
2585490.887
 20
1221404.922
 10
2585487.389
 20
1221403.628
 10
2585484.139
 20
1221402.476
 10
2585480.42
 20
1221401.035
 10
2585480.0
 20
1221402.195
 10
2585475.099
 20
1221400.264
 10
2585474.789
 20
1221399.904
 10
2585465.729
 20
1221395.923
 10
2585453.967
 20
1221389.663
 10
2585451.058
 20
1221388.113
 10
2585449.928
 20
1221389.652
 10
2585447.698
 20
1221395.323
 10
2585445.838
 20
1221392.922
 10
2585434.736
 20
1221380.121
 10
2585430.346
 20
1221387.48
 10
2585420.855
 20
1221393.178
 10
2585407.76
 20
1221404.153
 10
2585404.838
 20
1221404.795
 10
2585389.69
 20
1221406.959
 10
2585387.371
 20
1221406.647
 10
2585380.111
 20
1221404.633
 10
2585371.019
 20
1221402.466
 10
2585357.997
 20
1221398.098
 10
2585353.314
 20
1221396.692
 10
2585352.737
 20
1221398.753
 10
2585350.867
 20
1221395.929
 10
2585348.094
 20
1221395.098
 10
2585337.687
 20
1221394.553
 10
2585331.739
 20
1221392.3
 10
2585329.413
 20
1221391.45
 10
2585329.455
 20
1221390.88
 10
2585329.65
 20
1221388.18
 10
2585331.145
 20
1221388.227
 10
2585332.383
 20
1221387.388
 10
2585332.899
 20
1221385.888
 10
2585332.378
 20
1221384.39
 10
2585325.990000001
 20
1221376.939
 10
2585324.624
 20
1221375.447
 10
2585323.114
 20
1221375.457
 10
2585322.564
 20
1221376.037
 10
2585313.348
 20
1221365.184
 10
2585313.949
 20
1221364.515
 10
2585281.472000001
 20
1221327.465
 10
2585259.505
 20
1221304.422
 10
2585249.425
 20
1221293.8
 10
2585239.685
 20
1221286.367
 10
2585236.885
 20
1221281.498
 10
2585220.255
 20
1221265.069
 10
2585219.675
 20
1221265.559
 10
2585211.473000001
 20
1221259.729
 10
2585209.223
 20
1221257.559
 10
2585199.674
 20
1221248.728
 10
2585199.844
 20
1221245.939
 10
2585199.864
 20
1221244.929
 10
2585179.278
 20
1221222.447
 10
2585173.208
 20
1221215.405
 10
2585158.602
 20
1221198.368
 10
2585140.001
 20
1221184.474
 10
2585137.381
 20
1221180.184
 10
2585132.581
 20
1221172.314
 10
2585133.261
 20
1221171.784
 10
2585125.31
 20
1221162.794
 10
2585116.0
 20
1221157.144
 10
2585099.74
 20
1221158.116
 10
2585093.54
 20
1221139.816
 10
2585091.649
 20
1221131.986
 10
2585067.479
 20
1221106.605
 10
2585053.907
 20
1221088.034
 10
2585055.495
 20
1221084.204
 10
2585041.211
 20
1221068.692
 10
2585036.862
 20
1221066.013
 10
2585021.228
 20
1221054.882
 10
2585014.063
 20
1221048.875
 10
2585017.762
 20
1221042.607
 10
2584993.84
 20
1221014.796
 10
2584985.77
 20
1221006.976
 10
2584977.739
 20
1220999.367
 10
2584971.928
 20
1220994.166
 10
2584970.098000001
 20
1220990.807
 10
2584967.818
 20
1220989.087
 10
2584952.699
 20
1220976.444
 10
2584931.075
 20
1220950.45
 10
2584916.479
 20
1220933.197
 10
2584915.598000001
 20
1220932.117
 10
2584916.498
 20
1220931.487
 10
2584910.177000001
 20
1220922.726
 10
2584911.306
 20
1220921.986
 10
2584885.844
 20
1220896.258
 10
2584887.254
 20
1220894.478
 10
2584867.351
 20
1220876.238
 10
2584865.641
 20
1220877.058
 10
2584856.581
 20
1220868.489
 10
2584845.402
 20
1220858.759
 10
2584846.272
 20
1220854.92
 10
2584842.503
 20
1220850.74
 10
2584838.594
 20
1220848.88
 10
2584833.457
 20
1220845.671
 10
2584821.446
 20
1220834.342
 10
2584819.997
 20
1220835.752
 10
2584818.757
 20
1220834.312
 10
2584806.055
 20
1220821.181
 10
2584798.596
 20
1220814.714
 10
2584787.185
 20
1220806.08
 10
2584781.956
 20
1220800.5
 10
2584764.69
 20
1220782.251
 10
2584753.127
 20
1220772.192
 10
2584750.617
 20
1220770.122
 10
2584749.657000001
 20
1220771.422
 10
2584743.24
 20
1220769.651
 10
2584735.576
 20
1220766.87
 10
2584724.572
 20
1220761.858
 10
2584706.924
 20
1220750.158
 10
2584702.126
 20
1220746.61
 10
2584701.046
 20
1220745.03
 10
2584699.677000001
 20
1220735.54
 10
2584698.435
 20
1220732.039
 10
2584696.725
 20
1220731.569
 10
2584701.034
 20
1220727.319
 10
2584695.955
 20
1220726.359
 10
2584692.646
 20
1220725.559
 10
2584687.609
 20
1220723.359
 10
2584682.945
 20
1220720.45
 10
2584677.867
 20
1220716.571
 10
2584676.805
 20
1220714.92
 10
2584677.026
 20
1220710.991
 10
2584678.187
 20
1220707.551
 10
2584670.757
 20
1220701.421
 10
2584668.286
 20
1220701.801
 10
2584655.587
 20
1220696.459
 10
2584653.047
 20
1220694.829
 10
2584647.295
 20
1220689.489
 10
2584641.333
 20
1220684.748
 10
2584634.494
 20
1220681.979
 10
2584635.623
 20
1220681.078
 10
2584619.191000001
 20
1220669.075
 10
2584615.14
 20
1220666.113
 10
2584612.02
 20
1220665.16
 10
2584606.74
 20
1220660.548
 10
2584605.259
 20
1220658.919
 10
2584604.24
 20
1220657.488
 10
2584603.979
 20
1220655.989
 10
2584598.018
 20
1220650.87
 10
2584594.557
 20
1220646.121
 10
2584590.766
 20
1220643.171
 10
2584571.039
 20
1220636.154
 10
2584570.559
 20
1220635.274
 10
2584566.42
 20
1220635.352
 10
2584559.611
 20
1220635.19
 10
2584554.421
 20
1220634.549
 10
2584550.901
 20
1220633.539
 10
2584544.279000001
 20
1220654.094
 10
2584535.257000001
 20
1220644.438
 10
2584531.815
 20
1220638.902
 10
2584527.531
 20
1220630.607
  0
LWPOLYLINE
  5
91
102
{ACAD_XDICTIONARY
360
92
102
}
330
70
100
AcDbEntity
  8
quartiere
100
AcDbPolyline
 90
      412
 70
     1
 43
0.0
 10
2586419.806
 20
1221083.058
 10
2586311.032000001
 20
1221009.095
 10
2586462.709
 20
1220886.279
 10
2586471.199
 20
1220881.359
 10
2586513.808
 20
1220841.152
 10
2586488.038000001
 20
1220798.952
 10
2586489.508
 20
1220797.472
 10
2586496.858
 20
1220780.414
 10
2586504.149
 20
1220763.436
 10
2586517.118
 20
1220771.636
 10
2586521.008
 20
1220774.096
 10
2586531.107
 20
1220780.488
 10
2586534.847
 20
1220782.848
 10
2586545.486
 20
1220789.584
 10
2586548.706
 20
1220791.624
 10
2586561.596
 20
1220799.769
 10
2586579.017
 20
1220810.774
 10
2586595.857
 20
1220821.453
 10
2586618.797
 20
1220836.001
 10
2586627.807000001
 20
1220820.562
 10
2586628.277
 20
1220819.752
 10
2586651.205999999
 20
1220830.14
 10
2586653.726
 20
1220833.33
 10
2586664.667
 20
1220843.52
 10
2586648.027
 20
1220852.149
 10
2586661.577
 20
1220866.05
 10
2586667.737
 20
1220870.95
 10
2586684.806
 20
1220884.13
 10
2586707.195
 20
1220900.84
 10
2586712.485
 20
1220903.964
 10
2586718.018
 20
1220894.118
 10
2586721.505
 20
1220896.079
 10
2586745.172
 20
1220909.387
 10
2586754.112
 20
1220914.419
 10
2586771.396
 20
1220883.63
 10
2586779.445
 20
1220888.141
 10
2586782.847
 20
1220882.164
 10
2586779.828
 20
1220875.622
 10
2586781.778
 20
1220874.23
 10
2586784.178
 20
1220873.16
 10
2586787.708
 20
1220873.493
 10
2586790.478000001
 20
1220872.394
 10
2586790.247
 20
1220874.835
 10
2586793.345
 20
1220883.251
 10
2586789.386
 20
1220884.688
 10
2586799.567
 20
1220898.624
 10
2586805.868
 20
1220909.42
 10
2586815.228
 20
1220931.325
 10
2586819.554
 20
1220946.503
 10
2586820.513
 20
1220950.124
 10
2586825.046
 20
1220968.271
 10
2586834.227
 20
1220963.94
 10
2586837.175
 20
1220972.598
 10
2586838.632
 20
1220977.134
 10
2586839.86
 20
1220981.738
 10
2586841.053
 20
1220980.926
 10
2586842.413000001
 20
1220980.456
 10
2586852.951
 20
1220987.765
 10
2586865.375
 20
1220996.451
 10
2586879.29
 20
1221006.174
 10
2586886.756
 20
1221011.395
 10
2586898.715
 20
1221019.75
 10
2586902.027
 20
1221020.919
 10
2586933.196
 20
1221031.903
 10
2586934.616
 20
1221032.413
 10
2586952.501
 20
1221038.694
 10
2586968.254
 20
1221044.334
 10
2586984.953
 20
1221050.425
 10
2587000.693
 20
1221056.074
 10
2587012.735
 20
1221060.405
 10
2587019.835
 20
1221050.164
 10
2587035.416
 20
1221052.985
 10
2587050.494
 20
1221055.727
 10
2587106.462
 20
1221065.758
 10
2587119.473
 20
1221066.308
 10
2587121.113
 20
1221066.398
 10
2587136.16
 20
1221066.99
 10
2587145.616
 20
1221069.483
 10
2587177.874
 20
1221077.958
 10
2587202.537
 20
1221084.436
 10
2587260.2
 20
1221109.283
 10
2587280.169
 20
1221118.274
 10
2587284.509
 20
1221120.234
 10
2587340.009
 20
1221145.264
 10
2587415.478
 20
1221168.628
 10
2587419.458
 20
1221169.968
 10
2587423.089
 20
1221171.767
 10
2587426.609
 20
1221173.746
 10
2587430.048
 20
1221175.876
 10
2587433.409
 20
1221178.217
 10
2587436.728
 20
1221180.478
 10
2587439.946
 20
1221182.93
 10
2587441.986
 20
1221184.971
 10
2587443.644
 20
1221187.304
 10
2587444.692
 20
1221189.407
 10
2587449.773
 20
1221186.155
 10
2587451.724
 20
1221186.844
 10
2587453.774
 20
1221187.203
 10
2587455.773
 20
1221192.455
 10
2587482.272
 20
1221182.044
 10
2587488.302000001
 20
1221179.683
 10
2587578.547
 20
1221173.515
 10
2587592.538
 20
1221157.194
 10
2587588.894
 20
1221148.726
 10
2587586.019
 20
1221145.053
 10
2587582.264
 20
1221142.286
 10
2587578.844
 20
1221140.515
 10
2587576.196
 20
1221139.544
 10
2587573.209
 20
1221138.72
 10
2587569.418
 20
1221138.323
 10
2587584.283
 20
1221130.167
 10
2587594.478
 20
1221124.573
 10
2587596.218
 20
1221123.613
 10
2587604.889
 20
1221111.503
 10
2587613.066
 20
1221015.161
 10
2587613.254
 20
1221003.042
 10
2587612.597000001
 20
1220990.961
 10
2587609.700000001
 20
1220972.199
 10
2587606.14
 20
1220957.429
 10
2587600.218
 20
1220935.4
 10
2587588.458
 20
1220889.669
 10
2587587.438
 20
1220882.329
 10
2587587.088
 20
1220874.929
 10
2587587.437
 20
1220867.549
 10
2587601.905
 20
1220815.831
 10
2587604.125
 20
1220809.521
 10
2587606.863
 20
1220803.433
 10
2587610.29
 20
1220797.709
 10
2587606.847
 20
1220794.527
 10
2587660.228
 20
1220735.665
 10
2587703.589
 20
1220741.494
 10
2587738.989
 20
1220742.023
 10
2587757.59
 20
1220748.283
 10
2587839.812
 20
1220775.94
 10
2587915.504
 20
1220785.738
 10
2587950.404
 20
1220790.257
 10
2588050.987
 20
1220823.365
 10
2588110.908
 20
1220854.663
 10
2588244.842
 20
1220897.53
 10
2588257.702
 20
1220889.379
 10
2588262.592
 20
1220890.769
 10
2588240.452
 20
1220976.871
 10
2588218.693
 20
1221061.882
 10
2588220.143
 20
1221062.832
 10
2588240.523
 20
1221076.141
 10
2588225.043
 20
1221104.272
 10
2588257.975
 20
1221164.702
 10
2588253.025
 20
1221177.922
 10
2588200.115
 20
1221235.424
 10
2588194.289
 20
1221247.597
 10
2588184.235
 20
1221274.235
 10
2588179.105
 20
1221289.655
 10
2588190.455
 20
1221288.655
 10
2588204.395
 20
1221286.724
 10
2588210.465
 20
1221296.614
 10
2588217.036
 20
1221295.564
 10
2588223.606
 20
1221294.424
 10
2588225.496
 20
1221296.394
 10
2588273.687
 20
1221286.582
 10
2588287.417
 20
1221283.792
 10
2588287.471
 20
1221284.112
 10
2588296.978
 20
1221340.582
 10
2588309.038000001
 20
1221338.552
 10
2588415.6
 20
1221316.419
 10
2588421.48
 20
1221315.198
 10
2588422.32
 20
1221319.208
 10
2588428.55
 20
1221318.648
 10
2588426.23
 20
1221321.797
 10
2588444.339
 20
1221335.143
 10
2588470.499
 20
1221354.433
 10
2588450.318
 20
1221381.793
 10
2588430.737
 20
1221408.353
 10
2588404.765
 20
1221443.573
 10
2588359.22
 20
1221505.34
 10
2588355.401
 20
1221510.521
 10
2588361.986
 20
1221612.038
 10
2588367.546
 20
1221616.859
 10
2588354.685
 20
1221615.308
 10
2588355.797
 20
1221632.469
 10
2588357.863
 20
1221663.651
 10
2588372.687
 20
1221662.703
 10
2588378.807
 20
1221663.323
 10
2588384.382
 20
1221665.921
 10
2588388.774000001
 20
1221670.184
 10
2588391.528
 20
1221675.65
 10
2588392.37
 20
1221681.747
 10
2588391.161
 20
1221687.781
 10
2588389.364
 20
1221691.296
 10
2588386.861
 20
1221694.348
 10
2588383.352
 20
1221697.052
 10
2588360.813
 20
1221709.733
 10
2588352.412
 20
1221714.463
 10
2588361.693
 20
1221714.424
 10
2588369.343
 20
1221715.653
 10
2588519.315
 20
1221729.159
 10
2588515.965
 20
1221734.74
 10
2588510.292
 20
1221744.193
 10
2588438.845000001
 20
1221862.9
 10
2588435.688
 20
1221868.092
 10
2588434.293
 20
1221870.384
 10
2588435.533
 20
1221871.317
 10
2588436.873
 20
1221872.057
 10
2588576.414
 20
1221938.638
 10
2588572.366
 20
1221946.138
 10
2588550.652
 20
1221935.968
 10
2588518.312
 20
1221920.525
 10
2588449.838
 20
1221887.761
 10
2588432.322
 20
1221879.338
 10
2588430.602
 20
1221878.708
 10
2588428.823
 20
1221878.457
 10
2588427.293
 20
1221878.546
 10
2588425.803
 20
1221878.936
 10
2588424.393
 20
1221879.555
 10
2588423.123
 20
1221880.438
 10
2588422.052
 20
1221881.548
 10
2588406.751
 20
1221906.813
 10
2588405.251000001
 20
1221908.473
 10
2588378.013
 20
1221958.448
 10
2588363.585
 20
1221984.909
 10
2588240.274
 20
1221929.744
 10
2588236.559
 20
1221953.467
 10
2588232.102
 20
1222004.384
 10
2588244.47
 20
1222078.184
 10
2588258.976
 20
1222112.273
 10
2588277.47
 20
1222112.513
 10
2588293.886
 20
1222111.979
 10
2588295.898
 20
1222111.914
 10
2588337.405
 20
1222109.743
 10
2588341.917
 20
1222109.363
 10
2588345.697
 20
1222114.643
 10
2588355.98
 20
1222128.093
 10
2588372.253
 20
1222149.393
 10
2588386.232
 20
1222167.684
 10
2588401.395
 20
1222187.564
 10
2588367.184
 20
1222213.674
 10
2588368.944
 20
1222216.004
 10
2588363.494
 20
1222225.846
 10
2588409.039
 20
1222282.476
 10
2588402.44
 20
1222294.846
 10
2588429.931
 20
1222331.226
 10
2588441.781
 20
1222348.426
 10
2588450.152
 20
1222363.297
 10
2588460.162
 20
1222386.347
 10
2588465.841
 20
1222407.177
 10
2588467.401
 20
1222418.887
 10
2588468.721
 20
1222428.427
 10
2588468.831
 20
1222449.878
 10
2588466.071
 20
1222471.238
 10
2588463.151
 20
1222482.568
 10
2588470.851
 20
1222488.108
 10
2588486.210000001
 20
1222500.028
 10
2588511.499
 20
1222526.988
 10
2588554.329
 20
1222569.326
 10
2588556.809
 20
1222573.556
 10
2588580.789
 20
1222596.436
 10
2588606.71
 20
1222624.617
 10
2588611.728
 20
1222630.112
 10
2588608.637
 20
1222634.472
 10
2588603.057
 20
1222635.862
 10
2588494.398
 20
1222538.338
 10
2588487.946
 20
1222539.741
 10
2588483.576
 20
1222535.961
 10
2588487.168
 20
1222532.167
 10
2588404.556
 20
1222464.331
 10
2588352.425
 20
1222419.72
 10
2588347.945
 20
1222415.88
 10
2588313.415
 20
1222386.31
 10
2588286.685
 20
1222363.42
 10
2588293.585
 20
1222354.75
 10
2588268.066
 20
1222334.356
 10
2588201.354
 20
1222280.949
 10
2588192.024
 20
1222273.289
 10
2588182.712
 20
1222265.578
 10
2588173.442
 20
1222257.829
 10
2588172.284
 20
1222259.159
 10
2588101.426
 20
1222196.378
 10
2588055.812
 20
1222156.796
 10
2588025.41
 20
1222130.595
 10
2587997.115000001
 20
1222105.995
 10
2587996.185
 20
1222106.875
 10
2587960.591
 20
1222075.616
 10
2587943.034
 20
1222060.649
 10
2587927.613
 20
1222046.639
 10
2587905.209
 20
1222027.189
 10
2587889.031
 20
1222015.392
 10
2587862.841
 20
1221993.764
 10
2587834.238
 20
1221969.374
 10
2587815.071
 20
1221997.005
 10
2587813.482
 20
1221999.585
 10
2587809.791
 20
1221997.245
 10
2587803.333
 20
1222007.544
 10
2587777.133
 20
1221985.436
 10
2587740.913
 20
1222044.811
 10
2587737.463
 20
1222050.462
 10
2587746.623000001
 20
1222059.451
 10
2587749.212
 20
1222088.202
 10
2587751.443
 20
1222093.003
 10
2587750.373
 20
1222098.163
 10
2587734.4
 20
1222124.032
 10
2587723.806
 20
1222141.289
 10
2587700.752
 20
1222178.263
 10
2587688.791000001
 20
1222197.312
 10
2587645.821
 20
1222266.014
 10
2587637.609
 20
1222279.133
 10
2587634.669
 20
1222283.843
 10
2587634.489
 20
1222283.103
 10
2587553.381
 20
1222232.346
 10
2587550.811
 20
1222230.676
 10
2587548.29
 20
1222228.925
 10
2587545.82
 20
1222227.085
 10
2587543.65
 20
1222225.316
 10
2587539.601
 20
1222221.507
 10
2587527.584
 20
1222208.984
 10
2587523.862000001
 20
1222205.403
 10
2587521.003
 20
1222202.813
 10
2587515.207
 20
1222198.227
 10
2587496.956
 20
1222184.497
 10
2587481.78
 20
1222173.058
 10
2587459.361
 20
1222156.166
 10
2587451.562
 20
1222150.288
 10
2587446.643
 20
1222146.589
 10
2587441.723000001
 20
1222142.88
 10
2587436.802
 20
1222139.17
 10
2587431.881
 20
1222135.471
 10
2587424.528
 20
1222129.93
 10
2587418.696
 20
1222125.54
 10
2587398.309
 20
1222110.213
 10
2587379.93
 20
1222096.395
 10
2587353.644
 20
1222076.594
 10
2587352.302000001
 20
1222075.574
 10
2587344.524
 20
1222069.753
 10
2587318.925
 20
1222050.515
 10
2587309.008
 20
1222043.086
 10
2587307.715
 20
1221963.477
 10
2587306.806
 20
1221954.898
 10
2587305.387
 20
1221946.409
 10
2587303.608
 20
1221939.319
 10
2587303.278
 20
1221938.009
 10
2587302.386
 20
1221935.555
 10
2587300.428
 20
1221930.169
 10
2587297.388
 20
1221923.088
 10
2587293.438000001
 20
1221915.569
 10
2587289.199
 20
1221908.89
 10
2587284.238
 20
1221902.149
 10
2587248.398
 20
1221860.06
 10
2587239.499
 20
1221851.589
 10
2587231.909
 20
1221844.06
 10
2587226.58
 20
1221838.19
 10
2587219.959
 20
1221830.621
 10
2587210.26
 20
1221819.293
 10
2587207.61
 20
1221816.573
 10
2587201.301
 20
1221811.334
 10
2587199.061000001
 20
1221809.775
 10
2587196.751
 20
1221808.315
 10
2587189.14
 20
1221805.055
 10
2587189.401
 20
1221804.446
 10
2587185.601
 20
1221802.586
 10
2587177.511
 20
1221798.738
 10
2587175.842
 20
1221797.499
 10
2587170.473
 20
1221792.103
 10
2587168.524
 20
1221789.985
 10
2587168.253000001
 20
1221790.293
 10
2587166.284
 20
1221788.035
 10
2587160.173
 20
1221780.321
 10
2587153.702
 20
1221771.355
 10
2587143.534
 20
1221754.953
 10
2587130.902
 20
1221742.401
 10
2587132.452
 20
1221740.671
 10
2587123.191
 20
1221732.27
 10
2587112.941
 20
1221724.798
 10
2587100.121
 20
1221717.697
 10
2587068.222
 20
1221703.307
 10
2586994.148
 20
1221669.962
 10
2586985.016
 20
1221665.114
 10
2586975.564
 20
1221658.584
 10
2586967.753
 20
1221651.695
 10
2586960.592
 20
1221643.635
 10
2586954.651
 20
1221635.265
 10
2586922.843
 20
1221584.864
 10
2586899.588
 20
1221548.003
 10
2586886.311
 20
1221526.951
 10
2586893.551
 20
1221510.681
 10
2586901.579
 20
1221499.161
 10
2586907.289
 20
1221500.262
 10
2586923.216
 20
1221479.711
 10
2586924.466000001
 20
1221478.091
 10
2586927.066
 20
1221475.43
 10
2586931.685
 20
1221465.21
 10
2586954.827
 20
1221414.135
 10
2586976.3
 20
1221408.184
 10
2586987.091000001
 20
1221384.383
 10
2586944.499
 20
1221357.226
 10
2586910.526
 20
1221335.536
 10
2586893.344
 20
1221324.575
 10
2586873.151
 20
1221311.684
 10
2586861.952
 20
1221305.173
 10
2586850.521
 20
1221299.143
 10
2586824.281
 20
1221285.78
 10
2586801.748
 20
1221274.296
 10
2586747.187
 20
1221246.502
 10
2586739.296
 20
1221242.469
 10
2586732.433
 20
1221240.073
 10
2586725.2
 20
1221239.568
 10
2586718.088
 20
1221241.035
 10
2586705.603
 20
1221231.403
 10
2586679.876
 20
1221217.857
 10
2586685.868
 20
1221188.364
 10
2586675.718
 20
1221185.822
 10
2586653.608
 20
1221181.312
 10
2586651.258
 20
1221192.7
 10
2586619.829
 20
1221188.069
 10
2586488.412
 20
1221128.174
  0
LWPOLYLINE
  5
94
102
{ACAD_XDICTIONARY
360
95
102
}
330
70
100
AcDbEntity
  8
quartiere
100
AcDbPolyline
 90
      170
 70
     1
 43
0.0
 10
2585399.741
 20
1220035.341
 10
2585381.889
 20
1220037.729
 10
2585360.796
 20
1220044.91
 10
2585353.904000001
 20
1220047.41
 10
2585347.206
 20
1220050.319
 10
2585340.827
 20
1220053.899
 10
2585334.857
 20
1220058.089
 10
2584950.166
 20
1220259.552
 10
2584938.275
 20
1220269.713
 10
2584931.415
 20
1220275.413
 10
2584844.538
 20
1220322.923
 10
2584838.118
 20
1220326.154
 10
2584836.008
 20
1220327.225
 10
2584823.985
 20
1220333.365
 10
2584821.874
 20
1220334.447
 10
2584815.513
 20
1220337.681
 10
2584793.623
 20
1220377.535
 10
2584791.294
 20
1220375.662
 10
2584762.479
 20
1220392.746
 10
2584732.283
 20
1220407.266
 10
2584681.72
 20
1220426.011
 10
2584672.459
 20
1220432.339
 10
2584592.619
 20
1220458.071
 10
2584563.881
 20
1220466.4
 10
2584509.491
 20
1220480.166
 10
2584502.661
 20
1220482.945
 10
2584494.202
 20
1220476.483
 10
2584475.403
 20
1220480.686
 10
2584468.214000001
 20
1220489.848
 10
2584453.364
 20
1220492.909
 10
2584438.345000001
 20
1220493.222
 10
2584438.065
 20
1220491.432
 10
2584426.196
 20
1220493.485
 10
2584425.436
 20
1220493.525
 10
2584422.546
 20
1220492.936
 10
2584412.796
 20
1220494.547
 10
2584405.876
 20
1220495.308
 10
2584405.486
 20
1220495.668
 10
2584405.756000001
 20
1220497.818
 10
2584386.236
 20
1220499.58
 10
2584370.766
 20
1220499.914
 10
2584355.517
 20
1220499.912
 10
2584340.238
 20
1220499.548
 10
2584324.958
 20
1220498.491
 10
2584309.748
 20
1220497.259
 10
2584279.569
 20
1220492.594
 10
2584277.038
 20
1220496.953
 10
2584237.459
 20
1220483.958
 10
2584231.869
 20
1220465.618
 10
2584208.252
 20
1220457.477
 10
2584146.454
 20
1220433.092
 10
2584145.965
 20
1220425.401
 10
2584147.124
 20
1220423.5
 10
2584147.344000001
 20
1220423.11
 10
2584151.624
 20
1220416.131
 10
2584156.305
 20
1220410.131
 10
2584160.675
 20
1220404.531
 10
2584184.362
 20
1220374.159
 10
2584185.541
 20
1220372.669
 10
2584186.233
 20
1220372.695
 10
2584183.186
 20
1220333.82
 10
2584182.811000001
 20
1220328.991
 10
2584204.979
 20
1220327.955
 10
2584221.789
 20
1220321.622
 10
2584227.348000001
 20
1220319.381
 10
2584242.028
 20
1220313.424
 10
2584258.642
 20
1220304.995
 10
2584260.467
 20
1220304.067
 10
2584275.35
 20
1220297.536
 10
2584284.466
 20
1220293.536
 10
2584309.205
 20
1220285.022
 10
2584328.036
 20
1220273.502
 10
2584331.107
 20
1220270.912
 10
2584334.148
 20
1220268.302
 10
2584338.679
 20
1220264.323
 10
2584343.151
 20
1220260.323
 10
2584347.580000001
 20
1220256.232
 10
2584351.928
 20
1220252.081
 10
2584356.247
 20
1220247.901
 10
2584357.646
 20
1220249.321
 10
2584361.965
 20
1220245.12
 10
2584366.214
 20
1220240.86
 10
2584370.444000001
 20
1220236.569
 10
2584374.633
 20
1220232.239
 10
2584378.794
 20
1220227.858
 10
2584382.903
 20
1220223.457
 10
2584386.993
 20
1220219.037
 10
2584391.052
 20
1220214.576
 10
2584395.102
 20
1220210.105
 10
2584399.121
 20
1220205.604
 10
2584403.021
 20
1220201.023
 10
2584406.891
 20
1220196.393
 10
2584410.701
 20
1220191.723
 10
2584414.372
 20
1220186.944
 10
2584417.932
 20
1220182.105
 10
2584419.602
 20
1220178.515
 10
2584421.99
 20
1220175.223
 10
2584435.132
 20
1220156.787
 10
2584443.024
 20
1220145.745
 10
2584449.981
 20
1220117.19
 10
2584492.063
 20
1220139.475
 10
2584500.283
 20
1220128.745
 10
2584545.062
 20
1220030.819
 10
2584602.146
 20
1220056.722
 10
2584635.554
 20
1219982.882
 10
2584629.236
 20
1219975.938
 10
2584627.267
 20
1219966.758
 10
2584630.181
 20
1219957.833
 10
2584637.184
 20
1219951.579
 10
2584744.045
 20
1219921.49
 10
2584748.205
 20
1219924.61
 10
2584828.665
 20
1219899.721
 10
2584852.855
 20
1219892.361
 10
2584870.725
 20
1219886.931
 10
2584872.225
 20
1219888.001
 10
2584889.855
 20
1219882.221
 10
2584897.025
 20
1219878.842
 10
2584903.735
 20
1219874.862
 10
2584915.645000001
 20
1219866.271
 10
2584924.395
 20
1219859.361
 10
2584926.255
 20
1219861.491
 10
2584926.835
 20
1219861.051
 10
2584942.505
 20
1219880.972
 10
2584957.566
 20
1219883.843
 10
2584974.705
 20
1219847.642
 10
2584989.615
 20
1219816.441
 10
2584994.303
 20
1219806.711
 10
2584995.975
 20
1219803.241
 10
2585004.666000001
 20
1219784.973
 10
2585023.654
 20
1219745.06
 10
2585025.664
 20
1219746.47
 10
2585027.774
 20
1219743.05
 10
2585038.414
 20
1219732.91
 10
2585048.014
 20
1219716.849
 10
2585071.104
 20
1219687.869
 10
2585073.884
 20
1219685.029
 10
2585078.864
 20
1219692.549
 10
2585084.114
 20
1219688.749
 10
2585090.302671403
 20
1219685.48064051
 10
2585093.274
 20
1219699.18
 10
2585102.594
 20
1219706.73
 10
2585114.064
 20
1219714.713
 10
2585146.251000001
 20
1219737.117
 10
2585170.598
 20
1219754.063
 10
2585180.461000001
 20
1219760.928
 10
2585190.228
 20
1219767.725
 10
2585206.776
 20
1219779.244
 10
2585223.926
 20
1219790.924
 10
2585242.856
 20
1219803.885
 10
2585258.355
 20
1219814.7
 10
2585275.746
 20
1219826.835
 10
2585291.289
 20
1219837.681
 10
2585308.475000001
 20
1219849.674
 10
2585333.448
 20
1219867.098
 10
2585331.518
 20
1219869.639
 10
2585358.339
 20
1219888.305
 10
2585369.598
 20
1219896.14
 10
2585370.258
 20
1219895.31
 10
2585381.499
 20
1219908.471
 10
2585394.109
 20
1219922.931
 10
2585402.679
 20
1219932.992
 10
2585404.659
 20
1219919.901
 10
2585404.989000001
 20
1219919.951
 10
2585405.509
 20
1219914.141
 10
2585405.869
 20
1219908.401
 10
2585406.809
 20
1219891.35
 10
2585417.481
 20
1219902.282
 10
2585415.34
 20
1219920.581
 10
2585413.191
 20
1219941.702
 10
2585409.696000001
 20
1219966.735
  0
LWPOLYLINE
  5
97
102
{ACAD_XDICTIONARY
360
98
102
}
330
70
100
AcDbEntity
  8
quartiere
100
AcDbPolyline
 90
      190
 70
     1
 43
0.0
 10
2587578.247
 20
1222370.474
 10
2587593.172
 20
1222381.597
 10
2587542.711000001
 20
1222458.681
 10
2587546.62
 20
1222466.237
 10
2587551.61
 20
1222471.167
 10
2587566.951
 20
1222481.176
 10
2587661.582
 20
1222542.788
 10
2587680.875
 20
1222555.304
 10
2587679.512
 20
1222557.387
 10
2587688.143
 20
1222568.846
 10
2587735.217
 20
1222599.983
 10
2587749.127
 20
1222608.353
 10
2587738.477
 20
1222624.823
 10
2587723.654
 20
1222647.734
 10
2587730.994000001
 20
1222650.945
 10
2587739.645
 20
1222654.725
 10
2587749.104
 20
1222658.856
 10
2587753.994
 20
1222660.996
 10
2587759.074
 20
1222663.216
 10
2587764.003
 20
1222665.366
 10
2587769.073
 20
1222667.587
 10
2587773.983
 20
1222669.727
 10
2587779.072
 20
1222671.957
 10
2587793.262
 20
1222678.158
 10
2587778.461
 20
1222701.869
 10
2587721.179
 20
1222793.637
 10
2587716.570000001
 20
1222790.247
 10
2587694.239
 20
1222773.838
 10
2587693.039
 20
1222772.958
 10
2587666.828
 20
1222753.687
 10
2587660.416000001
 20
1222748.987
 10
2587658.686000001
 20
1222751.747
 10
2587661.747
 20
1222753.997
 10
2587656.887
 20
1222761.757
 10
2587577.34
 20
1222888.876
 10
2587565.918
 20
1222907.117
 10
2587597.04
 20
1222926.586
 10
2587590.11
 20
1222937.606
 10
2587557.118
 20
1222990.887
 10
2587556.647
 20
1222991.657
 10
2587557.467
 20
1222992.177
 10
2587545.184
 20
1223012.568
 10
2587534.385
 20
1223023.143
 10
2587547.055000001
 20
1223032.233
 10
2587559.785
 20
1223041.284
 10
2587603.526
 20
1223072.423
 10
2587598.124
 20
1223080.078
 10
2587616.324
 20
1223099.148
 10
2587655.675
 20
1223130.459
 10
2587720.565
 20
1223169.199
 10
2587756.556
 20
1223190.099
 10
2587768.884
 20
1223198.469
 10
2587801.0
 20
1223220.363
 10
2587892.997
 20
1223277.239
 10
2587921.913
 20
1223306.364
 10
2587961.208
 20
1223336.13
 10
2588011.089
 20
1223369.92
 10
2588051.889
 20
1223389.71
 10
2588113.69
 20
1223430.82
 10
2588156.42
 20
1223452.88
 10
2588150.437
 20
1223464.422
 10
2588162.117
 20
1223470.413
 10
2588168.1
 20
1223458.89
 10
2588193.561000001
 20
1223471.99
 10
2588290.242000001
 20
1223507.97
 10
2588402.812
 20
1223587.844
 10
2588462.184
 20
1223619.451
 10
2588495.994
 20
1223626.201
 10
2588534.055
 20
1223649.091
 10
2588527.552
 20
1223659.947
 10
2588543.953
 20
1223669.737
 10
2588551.515
 20
1223657.061
 10
2588582.335
 20
1223681.686
 10
2588656.716
 20
1223721.041
 10
2588702.067
 20
1223754.186
 10
2588735.738
 20
1223768.554
 10
2588756.629
 20
1223767.631
 10
2588762.389
 20
1223753.822
 10
2588801.447
 20
1223770.479
 10
2588833.708
 20
1223695.392
 10
2589036.304
 20
1223782.507
 10
2589046.165
 20
1223759.608
 10
2589113.865000001
 20
1223602.283
 10
2589145.409
 20
1223529.015
 10
2589200.756
 20
1223539.499
 10
2589276.347
 20
1223557.826
 10
2589343.591
 20
1223574.141
 10
2589343.821
 20
1223573.261
 10
2589345.431
 20
1223568.03
 10
2589391.71
 20
1223579.171
 10
2589471.898
 20
1223597.899
 10
2589486.532
 20
1223601.31
 10
2589492.901
 20
1223596.26
 10
2589512.424
 20
1223547.502
 10
2589522.171
 20
1223516.447
 10
2589521.938
 20
1223508.456
 10
2589516.688
 20
1223504.446
 10
2589493.698
 20
1223497.016
 10
2589611.764
 20
1223518.4
 10
2589660.545
 20
1223528.233
 10
2589702.19
 20
1223537.449
 10
2589744.098000001
 20
1223547.827
 10
2589786.361
 20
1223559.21
 10
2589784.231
 20
1223564.8
 10
2589789.101
 20
1223569.78
 10
2589806.341
 20
1223566.679
 10
2589822.478
 20
1223528.965
 10
2589826.58
 20
1223516.736
 10
2589742.218
 20
1223487.006
 10
2589727.318
 20
1223481.646
 10
2589652.187
 20
1223450.996
 10
2589658.988
 20
1223438.136
 10
2589682.148
 20
1223442.406
 10
2589674.318
 20
1223436.996
 10
2589609.537
 20
1223392.426
 10
2589590.613
 20
1223381.57
 10
2589508.866
 20
1223323.615
 10
2589403.225
 20
1223278.245
 10
2589364.094
 20
1223260.765
 10
2589342.714
 20
1223251.235
 10
2589320.894
 20
1223235.465
 10
2589277.133
 20
1223199.265
 10
2589171.633
 20
1223117.902
 10
2589129.159
 20
1223079.407
 10
2589114.776
 20
1223062.599
 10
2589074.227
 20
1223028.084
 10
2589045.969
 20
1223004.035
 10
2589042.923
 20
1223004.492
 10
2589024.333000001
 20
1222989.19
 10
2589023.519
 20
1222981.737
 10
2589012.702
 20
1222973.383
 10
2588999.068
 20
1222964.794
 10
2588980.261
 20
1222953.533
 10
2588695.238
 20
1222706.392
 10
2588683.06
 20
1222695.289
 10
2588659.378
 20
1222673.662
 10
2588648.3
 20
1222663.539
 10
2588637.228
 20
1222653.422
 10
2588611.728
 20
1222630.112
 10
2588608.637
 20
1222634.472
 10
2588603.057
 20
1222635.862
 10
2588494.398
 20
1222538.338
 10
2588487.946
 20
1222539.741
 10
2588483.576
 20
1222535.961
 10
2588487.168
 20
1222532.167
 10
2588404.556
 20
1222464.331
 10
2588352.425
 20
1222419.72
 10
2588347.945
 20
1222415.88
 10
2588313.415
 20
1222386.31
 10
2588286.685
 20
1222363.42
 10
2588293.585
 20
1222354.75
 10
2588268.066
 20
1222334.356
 10
2588201.354
 20
1222280.949
 10
2588192.024
 20
1222273.289
 10
2588182.712
 20
1222265.578
 10
2588173.442
 20
1222257.829
 10
2588172.284
 20
1222259.159
 10
2588101.426
 20
1222196.378
 10
2588055.812
 20
1222156.796
 10
2588025.41
 20
1222130.595
 10
2587997.115000001
 20
1222105.995
 10
2587996.185
 20
1222106.875
 10
2587960.591
 20
1222075.616
 10
2587927.613
 20
1222046.639
 10
2587905.209
 20
1222027.189
 10
2587889.031
 20
1222015.392
 10
2587862.841
 20
1221993.764
 10
2587834.238
 20
1221969.374
 10
2587815.071
 20
1221997.005
 10
2587813.482
 20
1221999.585
 10
2587809.791
 20
1221997.245
 10
2587803.333
 20
1222007.544
 10
2587777.133
 20
1221985.436
 10
2587740.913
 20
1222044.811
 10
2587737.463
 20
1222050.462
 10
2587746.623000001
 20
1222059.451
 10
2587749.212
 20
1222088.202
 10
2587751.443
 20
1222093.003
 10
2587750.373
 20
1222098.163
 10
2587734.4
 20
1222124.032
 10
2587723.806
 20
1222141.289
 10
2587700.752
 20
1222178.263
 10
2587688.791000001
 20
1222197.312
 10
2587645.821
 20
1222266.014
 10
2587637.609
 20
1222279.133
 10
2587634.669
 20
1222283.843
 10
2587601.401
 20
1222337.025
 10
2587591.982
 20
1222352.267
 10
2587589.932
 20
1222355.328
 10
2587587.766
 20
1222358.309
  0
LWPOLYLINE
  5
9A
102
{ACAD_XDICTIONARY
360
9B
102
}
330
70
100
AcDbEntity
  8
quartiere
100
AcDbPolyline
 90
      378
 70
     1
 43
0.0
 10
2586462.709
 20
1220886.279
 10
2586431.138
 20
1220867.779
 10
2586426.555
 20
1220873.88
 10
2586384.903
 20
1220849.486
 10
2586364.036
 20
1220841.133
 10
2586309.854
 20
1220831.972
 10
2586311.068
 20
1220826.399
 10
2586292.977
 20
1220822.82
 10
2586278.617
 20
1220818.751
 10
2586267.046000001
 20
1220815.382
 10
2586265.186000001
 20
1220814.682
 10
2586261.556
 20
1220812.802
 10
2586247.985
 20
1220805.151
 10
2586237.404
 20
1220799.342
 10
2586230.513
 20
1220794.583
 10
2586230.643
 20
1220791.603
 10
2586224.633
 20
1220790.523
 10
2586217.582
 20
1220785.664
 10
2586177.38
 20
1220757.955
 10
2586145.035
 20
1220735.659
 10
2586127.931
 20
1220723.872
 10
2586079.634
 20
1220690.494
 10
2586077.204
 20
1220693.713
 10
2586070.984
 20
1220702.183
 10
2586068.594
 20
1220705.412
 10
2586025.804
 20
1220674.89
 10
2586017.745
 20
1220687.519
 10
2586013.766
 20
1220693.769
 10
2585979.595000001
 20
1220669.748
 10
2586010.142
 20
1220663.72
 10
2586015.482
 20
1220662.67
 10
2586015.660000001
 20
1220650.34
 10
2586016.58
 20
1220650.105
 10
2586017.429
 20
1220649.68
 10
2586018.164
 20
1220649.108
 10
2586018.759
 20
1220648.391
 10
2586022.457
 20
1220643.481
 10
2586031.437
 20
1220631.582
 10
2586018.399
 20
1220621.701
 10
2586011.381
 20
1220616.371
 10
2586004.422
 20
1220611.061
 10
2585997.444
 20
1220605.791
 10
2585983.098
 20
1220594.885
 10
2585964.756
 20
1220581.001
 10
2585926.886
 20
1220552.419
 10
2585915.782
 20
1220543.287
 10
2585911.341
 20
1220540.24
 10
2585897.979
 20
1220531.042
 10
2585885.282
 20
1220522.354
 10
2585872.409
 20
1220515.68
 10
2585870.509
 20
1220514.411
 10
2585870.989
 20
1220513.711
 10
2585862.405
 20
1220507.997
 10
2585862.835
 20
1220507.368
 10
2585829.612000001
 20
1220485.133
 10
2585801.809
 20
1220466.497
 10
2585786.614
 20
1220456.312
 10
2585656.823
 20
1220369.262
 10
2585639.17
 20
1220358.388
 10
2585622.03
 20
1220345.559
 10
2585594.447
 20
1220324.921
 10
2585585.459
 20
1220318.181
 10
2585578.0
 20
1220312.611
 10
2585570.45
 20
1220306.96
 10
2585563.19
 20
1220301.53
 10
2585555.62
 20
1220295.85
 10
2585542.2
 20
1220285.811
 10
2585532.63
 20
1220278.701
 10
2585519.03
 20
1220268.51
 10
2585515.78
 20
1220266.08
 10
2585507.07
 20
1220259.56
 10
2585499.850000001
 20
1220254.13
 10
2585493.21
 20
1220249.16
 10
2585486.179
 20
1220243.88
 10
2585483.919
 20
1220247.25
 10
2585476.329
 20
1220241.64
 10
2585461.228
 20
1220230.378
 10
2585453.068
 20
1220224.279
 10
2585450.008
 20
1220222.599
 10
2585446.718
 20
1220221.499
 10
2585443.287
 20
1220220.958
 10
2585441.197
 20
1220220.948
 10
2585433.197
 20
1220221.248
 10
2585436.176
 20
1220191.173
 10
2585435.966
 20
1220186.163
 10
2585435.537
 20
1220174.102
 10
2585435.208
 20
1220165.07
 10
2585434.76
 20
1220152.659
 10
2585433.47
 20
1220145.718
 10
2585432.891
 20
1220130.178
 10
2585427.461
 20
1220115.629
 10
2585418.583
 20
1220091.846
 10
2585416.502
 20
1220086.277
 10
2585400.341
 20
1220043.08
 10
2585399.741
 20
1220035.341
 10
2585409.696000001
 20
1219966.735
 10
2585413.191
 20
1219941.702
 10
2585415.34
 20
1219920.581
 10
2585417.481
 20
1219902.282
 10
2585406.809
 20
1219891.35
 10
2585406.799000001
 20
1219887.53
 10
2585410.642
 20
1219877.306
 10
2585411.088
 20
1219876.12
 10
2585414.388
 20
1219876.95
 10
2585415.849
 20
1219877.07
 10
2585417.329
 20
1219876.92
 10
2585418.729
 20
1219876.48
 10
2585417.868
 20
1219874.47
 10
2585418.708
 20
1219873.96
 10
2585419.428
 20
1219873.26
 10
2585420.468
 20
1219871.65
 10
2585429.428
 20
1219856.1
 10
2585435.468
 20
1219847.1
 10
2585441.948
 20
1219839.32
 10
2585454.648
 20
1219825.359
 10
2585465.398
 20
1219813.759
 10
2585446.248
 20
1219796.718
 10
2585436.037
 20
1219787.558
 10
2585441.777
 20
1219745.607
 10
2585445.067
 20
1219740.357
 10
2585446.607
 20
1219737.927
 10
2585476.797
 20
1219717.937
 10
2585494.557
 20
1219706.166
 10
2585514.027
 20
1219693.346
 10
2585529.917
 20
1219682.936
 10
2585535.547
 20
1219683.987
 10
2585532.037000001
 20
1219679.036
 10
2585536.187
 20
1219676.116
 10
2585531.516
 20
1219669.636
 10
2585532.226
 20
1219663.226
 10
2585550.706
 20
1219654.266
 10
2585575.906
 20
1219638.106
 10
2585582.671
 20
1219634.01
 10
2585582.686
 20
1219633.516
 10
2585587.526
 20
1219630.166
 10
2585600.646
 20
1219623.956
 10
2585617.696
 20
1219615.036
 10
2585629.906
 20
1219608.706
 10
2585636.256
 20
1219604.976
 10
2585657.856
 20
1219591.706
 10
2585661.856000001
 20
1219589.036
 10
2585679.126
 20
1219579.836
 10
2585687.366
 20
1219574.906
 10
2585703.276
 20
1219565.516
 10
2585740.206
 20
1219543.876
 10
2585763.316
 20
1219530.606
 10
2585773.856
 20
1219524.016
 10
2585792.906
 20
1219512.966
 10
2585809.746
 20
1219503.156
 10
2585813.316
 20
1219501.076
 10
2585829.406
 20
1219489.896
 10
2585852.036
 20
1219479.706
 10
2585879.996
 20
1219467.136
 10
2585877.696
 20
1219462.096
 10
2585866.485
 20
1219437.265
 10
2585851.525
 20
1219404.214
 10
2585867.165
 20
1219397.174
 10
2585922.365
 20
1219372.264
 10
2585911.525
 20
1219348.223
 10
2585889.254
 20
1219299.031
 10
2585931.604
 20
1219282.021
 10
2585919.683
 20
1219252.47
 10
2585909.123
 20
1219226.279
 10
2585908.327
 20
1219224.425
 10
2585906.083000001
 20
1219218.779
 10
2585895.502
 20
1219192.648
 10
2585895.152
 20
1219191.798
 10
2585893.962
 20
1219188.858
 10
2585908.205
 20
1219181.935
 10
2585921.232
 20
1219174.531
 10
2585935.379000001
 20
1219169.565
 10
2585948.522
 20
1219162.253
 10
2585966.799
 20
1219147.618
 10
2585983.950000001
 20
1219132.364
 10
2585999.978
 20
1219116.44
 10
2586012.69
 20
1219098.601
 10
2586030.991
 20
1219067.118
 10
2586038.581
 20
1219054.397
 10
2586045.151
 20
1219059.857
 10
2586043.741000001
 20
1219062.247
 10
2586043.091
 20
1219064.927
 10
2586043.272
 20
1219067.717
 10
2586044.322
 20
1219070.247
 10
2586046.072
 20
1219072.377
 10
2586077.842
 20
1219099.889
 10
2586083.502
 20
1219105.309
 10
2586088.682
 20
1219111.189
 10
2586093.223
 20
1219117.559
 10
2586097.133
 20
1219124.35
 10
2586100.433
 20
1219131.47
 10
2586103.083000001
 20
1219138.84
 10
2586104.723
 20
1219138.3
 10
2586112.093
 20
1219160.631
 10
2586129.864
 20
1219213.763
 10
2586237.674
 20
1219178.374
 10
2586243.045
 20
1219194.754
 10
2586263.485
 20
1219188.214
 10
2586343.595
 20
1219162.185
 10
2586351.265
 20
1219183.576
 10
2586420.226
 20
1219210.668
 10
2586479.397
 20
1219233.889
 10
2586475.527
 20
1219244.619
 10
2586633.739
 20
1219306.944
 10
2586607.729
 20
1219328.304
 10
2586573.689
 20
1219359.174
 10
2586589.949
 20
1219363.845
 10
2586591.919
 20
1219364.415
 10
2586600.009
 20
1219366.705
 10
2586606.889
 20
1219360.865
 10
2586609.269
 20
1219361.925
 10
2586626.76
 20
1219369.886
 10
2586636.84
 20
1219381.716
 10
2586643.68
 20
1219394.957
 10
2586665.441
 20
1219445.779
 10
2586662.661
 20
1219448.729
 10
2586676.351
 20
1219465.809
 10
2586710.922
 20
1219508.591
 10
2586719.822
 20
1219515.842
 10
2586734.532
 20
1219527.722
 10
2586735.922
 20
1219525.932
 10
2586748.563
 20
1219531.762
 10
2586779.743
 20
1219546.723
 10
2586817.654
 20
1219576.195
 10
2586841.735
 20
1219599.305
 10
2586824.907
 20
1219621.457
 10
2586822.147
 20
1219627.988
 10
2586819.748
 20
1219634.686
 10
2586817.728
 20
1219641.481
 10
2586816.038
 20
1219648.372
 10
2586814.698
 20
1219655.348
 10
2586813.508
 20
1219662.363
 10
2586812.578
 20
1219669.42
 10
2586811.281
 20
1219683.543
 10
2586810.942
 20
1219690.641
 10
2586810.793
 20
1219697.726
 10
2586810.844
 20
1219704.803
 10
2586811.034
 20
1219710.644
 10
2586813.699
 20
1219769.491
 10
2586813.691000001
 20
1219771.647
 10
2586813.552000001
 20
1219773.804
 10
2586813.284
 20
1219775.952
 10
2586812.904
 20
1219778.091
 10
2586946.182000001
 20
1219843.237
 10
2586989.443
 20
1219861.746
 10
2586990.703
 20
1219862.286
 10
2586991.843
 20
1219863.746
 10
2587018.085
 20
1219897.186
 10
2587081.657000001
 20
1219914.615
 10
2587133.088
 20
1219926.483
 10
2587166.879
 20
1219954.453
 10
2587180.969
 20
1219975.483
 10
2587162.215
 20
1219994.984
 10
2587141.753
 20
1220016.294
 10
2587139.592
 20
1220018.543
 10
2587118.29
 20
1220040.638
 10
2587106.431
 20
1220052.99
 10
2587096.955
 20
1220062.855
 10
2587094.865
 20
1220065.035
 10
2587074.377
 20
1220086.328
 10
2587049.105
 20
1220096.286
 10
2587042.666
 20
1220099.609
 10
2587018.958000001
 20
1220113.521
 10
2587015.92
 20
1220115.778
 10
2587012.576
 20
1220113.921
 10
2587011.116
 20
1220116.542
 10
2587007.671
 20
1220122.731
 10
2587003.048
 20
1220130.78
 10
2586999.04
 20
1220136.98
 10
2586994.733
 20
1220142.974
 10
2586990.135
 20
1220148.749
 10
2586985.274
 20
1220154.308
 10
2586980.153
 20
1220159.627
 10
2586974.783
 20
1220164.695
 10
2586969.176
 20
1220169.5
 10
2586957.957
 20
1220178.654
 10
2586955.457
 20
1220180.694
 10
2586934.727
 20
1220200.465
 10
2586925.708
 20
1220210.87
 10
2586917.02
 20
1220222.795
 10
2586909.708
 20
1220236.369
 10
2586904.797
 20
1220241.18
 10
2586947.635
 20
1220241.024
 10
2586943.715
 20
1220245.683
 10
2586892.381
 20
1220306.256
 10
2586854.731
 20
1220288.566
 10
2586832.941
 20
1220286.346
 10
2586811.059
 20
1220284.107
 10
2586788.598
 20
1220281.817
 10
2586773.507
 20
1220280.277
 10
2586754.047
 20
1220310.518
 10
2586740.865
 20
1220351.87
 10
2586744.015
 20
1220371.27
 10
2586748.677
 20
1220400.03
 10
2586747.469
 20
1220429.051
 10
2586748.329
 20
1220430.561
 10
2586748.889
 20
1220431.521
 10
2586759.909
 20
1220451.281
 10
2586775.019
 20
1220478.228
 10
2586776.188
 20
1220480.148
 10
2586794.751000001
 20
1220513.669
 10
2586812.064
 20
1220577.619
 10
2586828.305
 20
1220584.419
 10
2586833.956
 20
1220586.75
 10
2586861.307
 20
1220598.07
 10
2586904.616
 20
1220616.321
 10
2586917.124
 20
1220624.11
 10
2586919.045
 20
1220624.381
 10
2586920.926
 20
1220624.911
 10
2586922.726
 20
1220625.692
 10
2586924.357
 20
1220626.772
 10
2586962.202
 20
1220656.546
 10
2586968.492
 20
1220661.336
 10
2586974.942
 20
1220665.876
 10
2586981.572
 20
1220670.165
 10
2587022.523
 20
1220695.744
 10
2587031.324
 20
1220684.254
 10
2587059.434
 20
1220700.453
 10
2587116.776
 20
1220744.642
 10
2587114.225
 20
1220748.731
 10
2587114.283
 20
1220752.59
 10
2587156.826
 20
1220784.829
 10
2587141.594
 20
1220870.979
 10
2587116.823
 20
1220903.709
 10
2587095.242
 20
1220906.23
 10
2587073.562
 20
1220906.581
 10
2587030.180000001
 20
1220905.631
 10
2586979.888
 20
1220867.512
 10
2586999.16
 20
1220841.971
 10
2586991.289
 20
1220836.031
 10
2586974.787
 20
1220848.582
 10
2586964.266
 20
1220848.752
 10
2586946.896
 20
1220869.843
 10
2586916.185
 20
1220880.715
 10
2586913.304
 20
1220896.725
 10
2586894.513
 20
1220926.876
 10
2586877.398
 20
1220967.77
 10
2586842.095
 20
1220923.84
 10
2586822.858
 20
1220897.805
 10
2586793.876000001
 20
1220877.618
 10
2586790.478000001
 20
1220872.394
 10
2586787.708
 20
1220873.493
 10
2586784.178
 20
1220873.16
 10
2586781.778
 20
1220874.23
 10
2586779.828
 20
1220875.622
 10
2586782.847
 20
1220882.164
 10
2586779.445
 20
1220888.141
 10
2586771.396
 20
1220883.63
 10
2586754.112
 20
1220914.419
 10
2586745.172
 20
1220909.387
 10
2586721.505
 20
1220896.079
 10
2586718.018
 20
1220894.118
 10
2586712.485
 20
1220903.964
 10
2586707.195
 20
1220900.84
 10
2586684.806
 20
1220884.13
 10
2586667.737
 20
1220870.95
 10
2586661.577
 20
1220866.05
 10
2586648.027
 20
1220852.149
 10
2586664.667
 20
1220843.52
 10
2586653.726
 20
1220833.33
 10
2586651.205999999
 20
1220830.14
 10
2586628.277
 20
1220819.752
 10
2586627.807000001
 20
1220820.562
 10
2586618.797
 20
1220836.001
 10
2586595.857
 20
1220821.453
 10
2586579.017
 20
1220810.774
 10
2586561.596
 20
1220799.769
 10
2586548.706
 20
1220791.624
 10
2586545.486
 20
1220789.584
 10
2586534.847
 20
1220782.848
 10
2586531.107
 20
1220780.488
 10
2586521.008
 20
1220774.096
 10
2586517.118
 20
1220771.636
 10
2586504.149
 20
1220763.436
 10
2586496.858
 20
1220780.414
 10
2586489.508
 20
1220797.472
 10
2586488.038000001
 20
1220798.952
 10
2586513.808
 20
1220841.152
 10
2586471.199
 20
1220881.359
  0
LWPOLYLINE
  5
9D
102
{ACAD_XDICTIONARY
360
9E
102
}
330
70
100
AcDbEntity
  8
quartiere
100
AcDbPolyline
 90
      152
 70
     1
 43
0.0
 10
2585209.223
 20
1221257.559
 10
2585211.473000001
 20
1221259.729
 10
2585219.675
 20
1221265.559
 10
2585220.255
 20
1221265.069
 10
2585236.885
 20
1221281.498
 10
2585239.685
 20
1221286.367
 10
2585249.425
 20
1221293.8
 10
2585259.505
 20
1221304.422
 10
2585281.472000001
 20
1221327.465
 10
2585313.949
 20
1221364.515
 10
2585313.348
 20
1221365.184
 10
2585322.564
 20
1221376.037
 10
2585323.114
 20
1221375.457
 10
2585324.624
 20
1221375.447
 10
2585325.990000001
 20
1221376.939
 10
2585332.378
 20
1221384.39
 10
2585332.899
 20
1221385.888
 10
2585332.383
 20
1221387.388
 10
2585331.145
 20
1221388.227
 10
2585329.65
 20
1221388.18
 10
2585329.413
 20
1221391.45
 10
2585331.739
 20
1221392.3
 10
2585337.687
 20
1221394.553
 10
2585348.094
 20
1221395.098
 10
2585350.867
 20
1221395.929
 10
2585352.737
 20
1221398.753
 10
2585353.314
 20
1221396.692
 10
2585357.997
 20
1221398.098
 10
2585371.019
 20
1221402.466
 10
2585380.111
 20
1221404.633
 10
2585387.371
 20
1221406.647
 10
2585389.69
 20
1221406.959
 10
2585404.838
 20
1221404.795
 10
2585407.76
 20
1221404.153
 10
2585420.855
 20
1221393.178
 10
2585430.346
 20
1221387.48
 10
2585434.728
 20
1221380.112
 10
2585445.838
 20
1221392.922
 10
2585447.698
 20
1221395.323
 10
2585449.928
 20
1221389.652
 10
2585451.058
 20
1221388.113
 10
2585453.967
 20
1221389.663
 10
2585465.729
 20
1221395.923
 10
2585474.789
 20
1221399.904
 10
2585475.099
 20
1221400.264
 10
2585480.0
 20
1221402.195
 10
2585480.42
 20
1221401.035
 10
2585484.139
 20
1221402.476
 10
2585487.389
 20
1221403.628
 10
2585490.887
 20
1221404.922
 10
2585491.017
 20
1221404.562
 10
2585493.236
 20
1221406.024
 10
2585497.257
 20
1221408.542
 10
2585512.089
 20
1221418.435
 10
2585522.877
 20
1221426.278
 10
2585519.61
 20
1221430.675
 10
2585520.692
 20
1221431.488
 10
2585526.537
 20
1221435.876
 10
2585529.981
 20
1221438.462
 10
2585535.532
 20
1221442.461
 10
2585540.884
 20
1221446.311
 10
2585550.675
 20
1221453.404
 10
2585550.906
 20
1221453.571
 10
2585554.206
 20
1221449.131
 10
2585554.485
 20
1221448.772
 10
2585567.206
 20
1221432.413
 10
2585587.555
 20
1221431.559
 10
2585593.746
 20
1221428.408
 10
2585593.802
 20
1221409.053
 10
2585593.823
 20
1221402.113
 10
2585593.862
 20
1221388.253
 10
2585593.931
 20
1221368.253
 10
2585593.971
 20
1221358.794
 10
2585594.0
 20
1221349.354
 10
2585594.03
 20
1221339.895
 10
2585594.041000001
 20
1221330.446
 10
2585594.099
 20
1221311.319
 10
2585594.158
 20
1221297.481
 10
2585594.197
 20
1221290.803
 10
2585586.567
 20
1221280.774
 10
2585608.404
 20
1221254.075
 10
2585617.022
 20
1221241.396
 10
2585623.81
 20
1221231.49
 10
2585613.748
 20
1221224.904
 10
2585603.702
 20
1221217.923
 10
2585593.814
 20
1221211.061
 10
2585592.283
 20
1221208.532
 10
2585584.584
 20
1221195.619
 10
2585577.627
 20
1221183.995
 10
2585570.671000001
 20
1221172.372
 10
2585565.553
 20
1221163.841
 10
2585563.644
 20
1221160.67
 10
2585550.558
 20
1221152.078
 10
2585544.067
 20
1221147.847
 10
2585518.268
 20
1221130.856
 10
2585515.144
 20
1221155.689
 10
2585508.666
 20
1221161.38
 10
2585501.158
 20
1221163.535
 10
2585496.554
 20
1221164.897
 10
2585494.491
 20
1221160.266
 10
2585494.106
 20
1221158.278
 10
2585494.932
 20
1221154.366
 10
2585498.996
 20
1221143.201
 10
2585498.772
 20
1221140.306
 10
2585494.355
 20
1221135.674
 10
2585482.556
 20
1221122.368
 10
2585468.907
 20
1221105.397
 10
2585463.936
 20
1221100.827
 10
2585459.754
 20
1221097.865
 10
2585455.466
 20
1221095.058
 10
2585439.356000001
 20
1221085.627
 10
2585425.926
 20
1221077.634
 10
2585409.015
 20
1221069.123
 10
2585392.906
 20
1221062.503
 10
2585384.706
 20
1221059.833
 10
2585372.308
 20
1221056.588
 10
2585360.078
 20
1221053.897
 10
2585327.887
 20
1221054.906
 10
2585316.399
 20
1221055.012
 10
2585304.964
 20
1221053.906
 10
2585300.764
 20
1221052.856
 10
2585298.898
 20
1221073.839
 10
2585298.626
 20
1221078.509
 10
2585294.628
 20
1221078.373
 10
2585285.489
 20
1221077.948
 10
2585273.1
 20
1221074.104
 10
2585272.025
 20
1221076.795
 10
2585270.44
 20
1221079.566
 10
2585273.830000001
 20
1221081.766
 10
2585273.34
 20
1221082.546
 10
2585273.990000001
 20
1221082.976
 10
2585272.189
 20
1221112.843
 10
2585267.579
 20
1221120.832
 10
2585265.359
 20
1221119.822
 10
2585263.589000001
 20
1221123.132
 10
2585273.91
 20
1221129.251
 10
2585275.47
 20
1221131.02
 10
2585274.859
 20
1221140.907
 10
2585277.399
 20
1221146.894
 10
2585275.269
 20
1221173.212
 10
2585273.179
 20
1221175.163
 10
2585267.018
 20
1221183.413
 10
2585262.706
 20
1221189.269
 10
2585255.566
 20
1221199.612
 10
2585246.244
 20
1221213.809
 10
2585251.696
 20
1221216.779
 10
2585256.766
 20
1221220.19
 10
2585255.837
 20
1221230.831
 10
2585234.47
 20
1221258.434
 10
2585233.574
 20
1221258.187
 10
2585224.685
 20
1221252.588
 10
2585218.034
 20
1221248.149
  0
ENDSEC
  0
SECTION
  2
OBJECTS
  0
DICTIONARY
  5
C
330
0
100
AcDbDictionary
281
     1
  3
ACAD_COLOR
350
63
  3
ACAD_DETAILVIEWSTYLE
350
6A
  3
ACAD_GROUP
350
D
  3
ACAD_LAYOUT
350
62
  3
ACAD_MATERIAL
350
10
  3
ACAD_MLEADERSTYLE
350
66
  3
ACAD_MLINESTYLE
350
5F
  3
ACAD_PLOTSETTINGS
350
61
  3
ACAD_PLOTSTYLENAME
350
E
  3
ACAD_SCALELIST
350
42
  3
ACAD_SECTIONVIEWSTYLE
350
68
  3
ACAD_TABLESTYLE
350
64
  3
ACAD_VISUALSTYLE
350
29
  3
ACDB_RECOMPOSE_DATA
350
A8
  3
AcDbVariableDictionary
350
A0
  3
IrdDscDictionary
350
7A
  0
DICTIONARY
  5
83
330
82
100
AcDbDictionary
280
     1
281
     1
  3
*A1
360
84
  0
DICTIONARY
  5
86
330
85
100
AcDbDictionary
280
     1
281
     1
  3
*A1
360
87
  0
DICTIONARY
  5
89
330
88
100
AcDbDictionary
280
     1
281
     1
  3
*A1
360
8A
  0
DICTIONARY
  5
8C
330
8B
100
AcDbDictionary
280
     1
281
     1
  3
*A1
360
8D
  0
DICTIONARY
  5
8F
330
8E
100
AcDbDictionary
280
     1
281
     1
  3
*A1
360
90
  0
DICTIONARY
  5
92
330
91
100
AcDbDictionary
280
     1
281
     1
  3
*A1
360
93
  0
DICTIONARY
  5
95
330
94
100
AcDbDictionary
280
     1
281
     1
  3
*A1
360
96
  0
DICTIONARY
  5
98
330
97
100
AcDbDictionary
280
     1
281
     1
  3
*A1
360
99
  0
DICTIONARY
  5
9B
330
9A
100
AcDbDictionary
280
     1
281
     1
  3
*A1
360
9C
  0
DICTIONARY
  5
9E
330
9D
100
AcDbDictionary
280
     1
281
     1
  3
*A1
360
9F
  0
DICTIONARY
  5
63
102
{ACAD_REACTORS
330
C
102
}
330
C
100
AcDbDictionary
281
     1
  0
DICTIONARY
  5
6A
102
{ACAD_REACTORS
330
C
102
}
330
C
100
AcDbDictionary
281
     1
  3
Imperial24
350
6B
  0
DICTIONARY
  5
D
102
{ACAD_REACTORS
330
C
102
}
330
C
100
AcDbDictionary
281
     1
  0
DICTIONARY
  5
62
102
{ACAD_REACTORS
330
C
102
}
330
C
100
AcDbDictionary
281
     1
  3
Layout1
350
6F
  3
Layout2
350
77
  3
Model
350
73
  0
DICTIONARY
  5
10
102
{ACAD_REACTORS
330
C
102
}
330
C
100
AcDbDictionary
281
     1
  3
ByBlock
350
19
  3
ByLayer
350
11
  3
Global
350
21
  0
DICTIONARY
  5
66
102
{ACAD_REACTORS
330
C
102
}
330
C
100
AcDbDictionary
281
     1
  3
Standard
350
67
  0
DICTIONARY
  5
5F
102
{ACAD_REACTORS
330
C
102
}
330
C
100
AcDbDictionary
281
     1
  3
Standard
350
60
  0
DICTIONARY
  5
61
102
{ACAD_REACTORS
330
C
102
}
330
C
100
AcDbDictionary
281
     1
  0
ACDBDICTIONARYWDFLT
  5
E
102
{ACAD_REACTORS
330
C
102
}
330
C
100
AcDbDictionary
281
     1
  3
Normal
350
F
100
AcDbDictionaryWithDefault
340
F
  0
DICTIONARY
  5
42
102
{ACAD_REACTORS
330
C
102
}
330
C
100
AcDbDictionary
281
     1
  3
A0
350
43
  3
A1
350
44
  3
A2
350
45
  3
A3
350
46
  3
A4
350
47
  3
A5
350
48
  3
A6
350
49
  3
A7
350
4A
  3
A8
350
4B
  3
A9
350
4C
  3
B0
350
4D
  3
B1
350
4E
  3
B2
350
4F
  3
B3
350
50
  3
B4
350
51
  3
B5
350
52
  3
B6
350
53
  0
DICTIONARY
  5
68
102
{ACAD_REACTORS
330
C
102
}
330
C
100
AcDbDictionary
281
     1
  3
Imperial24
350
69
  0
DICTIONARY
  5
64
102
{ACAD_REACTORS
330
C
102
}
330
C
100
AcDbDictionary
281
     1
  3
Standard
350
65
  0
DICTIONARY
  5
29
102
{ACAD_REACTORS
330
C
102
}
330
C
100
AcDbDictionary
281
     1
  3
2dWireframe
350
2F
  3
Basic
350
2E
  3
Brighten
350
35
  3
ColorChange
350
39
  3
Conceptual
350
32
  3
Dim
350
34
  3
EdgeColorOff
350
41
  3
Facepattern
350
38
  3
Flat
350
2A
  3
FlatWithEdges
350
2B
  3
Gouraud
350
2C
  3
GouraudWithEdges
350
2D
  3
Hidden
350
31
  3
JitterOff
350
3F
  3
Linepattern
350
37
  3
OverhangOff
350
40
  3
Realistic
350
33
  3
Shaded
350
3E
  3
Shaded with edges
350
3D
  3
Shades of Gray
350
3A
  3
Sketchy
350
3B
  3
Thicken
350
36
  3
Wireframe
350
30
  3
X-Ray
350
3C
  0
XRECORD
  5
A8
102
{ACAD_REACTORS
330
C
102
}
330
C
100
AcDbXrecord
280
     1
 90
        1
330
65
  0
DICTIONARY
  5
A0
102
{ACAD_REACTORS
330
C
102
}
330
C
100
AcDbDictionary
281
     1
  3
CANNOSCALE
350
A5
  3
CMLEADERSTYLE
350
A2
  3
CTABLESTYLE
350
A1
  3
CVIEWDETAILSTYLE
350
A3
  3
CVIEWSECTIONSTYLE
350
A4
  0
IRD_DSC_DICT
  5
7A
102
{ACAD_REACTORS
330
C
102
}
330
C
100
AcDbDictionary
281
     1
  3
*A1
350
7B
  3
*A2
350
7C
  3
*A3
350
7D
  3
*A4
350
7E
  3
*A5
350
7F
100
CIrdDscDict
1040
0.0
  0
IRD_OBJ_RECORD
  5
84
102
{ACAD_REACTORS
330
83
102
}
330
83
100
CIrdBaseRecord
1070
   516
1071
        1
1004
01000000000000488F4069006E006E0065006E0073007400610064007400000049006E006E0065006E0073007400610064007400200013202000430065006E007400720065002D00760069006C006C0065002000000049006E006E0065006E00730074006100640074000000430065006E007400720065002D00760069006C
1004
006C0065002000000023003100380063006300630039000000
100
CIrdObjRecord
330
7F
  0
IRD_OBJ_RECORD
  5
87
102
{ACAD_REACTORS
330
86
102
}
330
86
100
CIrdBaseRecord
1070
   516
1071
        1
1004
01000000000000508F40760069006E00670065006C007A000000560069006E00670065006C007A002000132020005600690067006E00650075006C006500730020000000560069006E00670065006C007A0000005600690067006E00650075006C00650073002000000023006600660039003900300030000000
100
CIrdObjRecord
330
7F
  0
IRD_OBJ_RECORD
  5
8A
102
{ACAD_REACTORS
330
89
102
}
330
89
100
CIrdBaseRecord
1070
   516
1071
        1
1004
01000000000000588F406700750072007A0065006C0065006E0000004700750072007A0065006C0065006E0000004700750072007A0065006C0065006E0000004700750072007A0065006C0065006E00000023006600660039003900300030000000
100
CIrdObjRecord
330
7F
  0
IRD_OBJ_RECORD
  5
8D
102
{ACAD_REACTORS
330
8C
102
}
330
8C
100
CIrdBaseRecord
1070
   516
1071
        1
1004
01000000000000608F4062006F0065007A0069006E00670065006E0000004200F6007A0069006E00670065006E0020001320200042006F0075006A00650061006E0000004200F6007A0069006E00670065006E00000042006F0075006A00650061006E00000023003100380063006300630039000000
100
CIrdObjRecord
330
7F
  0
IRD_OBJ_RECORD
  5
90
102
{ACAD_REACTORS
330
8F
102
}
330
8F
100
CIrdBaseRecord
1070
   516
1071
        1
1004
01000000000000688F4062006500610075006D006F006E007400000042006500610075006D006F006E007400000042006500610075006D006F006E007400000042006500610075006D006F006E007400000023003200650038003300640064000000
100
CIrdObjRecord
330
7F
  0
IRD_OBJ_RECORD
  5
93
102
{ACAD_REACTORS
330
92
102
}
330
92
100
CIrdBaseRecord
1070
   516
1071
        1
1004
01000000000000708F406D0065007400740000004D006500740074002000132020004D00E20063006800650000004D0065007400740000004D00E200630068006500000023006600660064006500310031000000
100
CIrdObjRecord
330
7F
  0
IRD_OBJ_RECORD
  5
96
102
{ACAD_REACTORS
330
95
102
}
330
95
100
CIrdBaseRecord
1070
   516
1071
        1
1004
01000000000000788F40730065006500710075006100720074006900650072006500000053006500650071007500610072007400690065007200650020001320200051007500610072007400690065007200730020006400750020006C00610063000000530065006500710075006100720074006900650072006500000051
1004
007500610072007400690065007200730020006400750020006C0061006300000023006600660064006500310031000000
100
CIrdObjRecord
330
7F
  0
IRD_OBJ_RECORD
  5
99
102
{ACAD_REACTORS
330
98
102
}
330
98
100
CIrdBaseRecord
1070
   516
1071
        1
1004
01000000000000808F4062006F0065007A0069006E00670065006E00660065006C00640000004200F6007A0069006E00670065006E00660065006C0064002000132020004300680061006D00700073002D00640065002D0042006F0075006A00650061006E0000004200F6007A0069006E00670065006E00660065006C0064
1004
0000004300680061006D00700073002D00640065002D0042006F0075006A00650061006E00000023003200650038003300640064000000
100
CIrdObjRecord
330
7F
  0
IRD_OBJ_RECORD
  5
9C
102
{ACAD_REACTORS
330
9B
102
}
330
9B
100
CIrdBaseRecord
1070
   516
1071
        1
1004
01000000000000888F406D006100640072006500740073006300680000004D006100640072006500740073006300680000004D006100640072006500740073006300680000004D0061006400720065007400730063006800000023003200650038003300640064000000
100
CIrdObjRecord
330
7F
  0
IRD_OBJ_RECORD
  5
9F
102
{ACAD_REACTORS
330
9E
102
}
330
9E
100
CIrdBaseRecord
1070
   516
1071
        1
1004
01000000000000908F4061006C00740073007400610064007400000041006C0074007300740061006400740020001320200056006900650069006C006C0065002000560069006C006C006500000041006C00740073007400610064007400000056006900650069006C006C0065002000560069006C006C0065000000230066
1004
00660064006500310031000000
100
CIrdObjRecord
330
7F
  0
ACDBDETAILVIEWSTYLE
  5
6B
102
{ACAD_XDICTIONARY
360
AB
102
}
102
{ACAD_REACTORS
330
6A
102
}
330
6A
100
AcDbModelDocViewStyle
 70
     0
  3
Imperial24
290
     0
100
AcDbDetailViewStyle
 70
     0
 71
     0
 90
        3
 71
     1
340
55
 62
   256
 40
0.24
340
0
 62
   256
 40
0.24
300

 40
0.36
280
     3
 71
     2
340
5D
 90
       25
 62
   256
 71
     3
340
55
 62
   256
 40
0.24
 90
        1
 40
0.75
 90
        1
300
%<\AcVar ViewType \f "%tc1">% %<\AcVar ViewDetailId>%\PSCALE %<\AcVar ViewScale \f "%sn">%
 71
     4
340
5D
 90
       25
 62
   256
340
5D
 90
       25
 62
   256
280
     0
  0
LAYOUT
  5
6F
102
{ACAD_REACTORS
330
62
102
}
330
62
100
AcDbPlotSettings
  1

  2

  4

  6

 40
0.0
 41
0.0
 42
0.0
 43
0.0
 44
0.0
 45
0.0
 46
0.0
 47
0.0
 48
0.0
 49
0.0
140
0.0
141
0.0
142
1.0
143
1.0
 70
   688
 72
     0
 73
     0
 74
     5
  7

 75
    16
147
1.0
 76
     0
 77
     2
 78
   300
148
0.0
149
0.0
100
AcDbLayout
  1
Layout1
 70
     1
 71
     1
 10
0.0
 20
0.0
 11
12.0
 21
9.0
 12
0.0
 22
0.0
 32
0.0
 14
0.0
 24
0.0
 34
0.0
 15
0.0
 25
0.0
 35
0.0
146
0.0
 13
0.0
 23
0.0
 33
0.0
 16
1.0
 26
0.0
 36
0.0
 17
0.0
 27
1.0
 37
0.0
 76
     0
330
6C
  0
LAYOUT
  5
77
102
{ACAD_REACTORS
330
62
102
}
330
62
100
AcDbPlotSettings
  1

  2

  4

  6

 40
0.0
 41
0.0
 42
0.0
 43
0.0
 44
0.0
 45
0.0
 46
0.0
 47
0.0
 48
0.0
 49
0.0
140
0.0
141
0.0
142
1.0
143
1.0
 70
   688
 72
     0
 73
     0
 74
     5
  7

 75
    16
147
1.0
 76
     0
 77
     2
 78
   300
148
0.0
149
0.0
100
AcDbLayout
  1
Layout2
 70
     1
 71
     2
 10
0.0
 20
0.0
 11
12.0
 21
9.0
 12
0.0
 22
0.0
 32
0.0
 14
0.0
 24
0.0
 34
0.0
 15
0.0
 25
0.0
 35
0.0
146
0.0
 13
0.0
 23
0.0
 33
0.0
 16
1.0
 26
0.0
 36
0.0
 17
0.0
 27
1.0
 37
0.0
 76
     0
330
74
  0
LAYOUT
  5
73
102
{ACAD_REACTORS
330
62
102
}
330
62
100
AcDbPlotSettings
  1

  2

  4

  6

 40
0.0
 41
0.0
 42
0.0
 43
0.0
 44
0.0
 45
0.0
 46
0.0
 47
0.0
 48
0.0
 49
0.0
140
0.0
141
0.0
142
1.0
143
1.0
 70
  1712
 72
     0
 73
     0
 74
     0
  7

 75
     0
147
1.0
 76
     0
 77
     2
 78
   300
148
0.0
149
0.0
100
AcDbLayout
  1
Model
 70
     1
 71
     0
 10
0.0
 20
0.0
 11
12.0
 21
9.0
 12
0.0
 22
0.0
 32
0.0
 14
0.0
 24
0.0
 34
0.0
 15
0.0
 25
0.0
 35
0.0
146
0.0
 13
0.0
 23
0.0
 33
0.0
 16
1.0
 26
0.0
 36
0.0
 17
0.0
 27
1.0
 37
0.0
 76
     0
330
70
  0
MATERIAL
  5
19
102
{ACAD_XDICTIONARY
360
1A
102
}
102
{ACAD_REACTORS
330
10
102
}
330
10
100
AcDbMaterial
  1
ByBlock
 72
     0
 43
0.0208333333333333
 43
0.0
 43
0.0
 43
0.0
 43
0.0
 43
0.0208333333333333
 43
0.0
 43
0.0
 43
0.0
 43
0.0
 43
1.0
 43
0.0
 43
0.0
 43
0.0
 43
0.0
 43
1.0
 77
     0
 47
0.0208333333333333
 47
0.0
 47
0.0
 47
0.0
 47
0.0
 47
0.0208333333333333
 47
0.0
 47
0.0
 47
0.0
 47
0.0
 47
1.0
 47
0.0
 47
0.0
 47
0.0
 47
0.0
 47
1.0
171
     0
 49
0.0208333333333333
 49
0.0
 49
0.0
 49
0.0
 49
0.0
 49
0.0208333333333333
 49
0.0
 49
0.0
 49
0.0
 49
0.0
 49
1.0
 49
0.0
 49
0.0
 49
0.0
 49
0.0
 49
1.0
175
     0
142
0.0208333333333333
142
0.0
142
0.0
142
0.0
142
0.0
142
0.0208333333333333
142
0.0
142
0.0
142
0.0
142
0.0
142
1.0
142
0.0
142
0.0
142
0.0
142
0.0
142
1.0
179
     0
144
0.0208333333333333
144
0.0
144
0.0
144
0.0
144
0.0
144
0.0208333333333333
144
0.0
144
0.0
144
0.0
144
0.0
144
1.0
144
0.0
144
0.0
144
0.0
144
0.0
144
1.0
147
0.0208333333333333
147
0.0
147
0.0
147
0.0
147
0.0
147
0.0208333333333333
147
0.0
147
0.0
147
0.0
147
0.0
147
1.0
147
0.0
147
0.0
147
0.0
147
0.0
147
1.0
  0
MATERIAL
  5
11
102
{ACAD_XDICTIONARY
360
12
102
}
102
{ACAD_REACTORS
330
10
102
}
330
10
100
AcDbMaterial
  1
ByLayer
 72
     0
 43
0.0208333333333333
 43
0.0
 43
0.0
 43
0.0
 43
0.0
 43
0.0208333333333333
 43
0.0
 43
0.0
 43
0.0
 43
0.0
 43
1.0
 43
0.0
 43
0.0
 43
0.0
 43
0.0
 43
1.0
 77
     0
 47
0.0208333333333333
 47
0.0
 47
0.0
 47
0.0
 47
0.0
 47
0.0208333333333333
 47
0.0
 47
0.0
 47
0.0
 47
0.0
 47
1.0
 47
0.0
 47
0.0
 47
0.0
 47
0.0
 47
1.0
171
     0
 49
0.0208333333333333
 49
0.0
 49
0.0
 49
0.0
 49
0.0
 49
0.0208333333333333
 49
0.0
 49
0.0
 49
0.0
 49
0.0
 49
1.0
 49
0.0
 49
0.0
 49
0.0
 49
0.0
 49
1.0
175
     0
142
0.0208333333333333
142
0.0
142
0.0
142
0.0
142
0.0
142
0.0208333333333333
142
0.0
142
0.0
142
0.0
142
0.0
142
1.0
142
0.0
142
0.0
142
0.0
142
0.0
142
1.0
179
     0
144
0.0208333333333333
144
0.0
144
0.0
144
0.0
144
0.0
144
0.0208333333333333
144
0.0
144
0.0
144
0.0
144
0.0
144
1.0
144
0.0
144
0.0
144
0.0
144
0.0
144
1.0
147
0.0208333333333333
147
0.0
147
0.0
147
0.0
147
0.0
147
0.0208333333333333
147
0.0
147
0.0
147
0.0
147
0.0
147
1.0
147
0.0
147
0.0
147
0.0
147
0.0
147
1.0
  0
MATERIAL
  5
21
102
{ACAD_XDICTIONARY
360
22
102
}
102
{ACAD_REACTORS
330
10
102
}
330
10
100
AcDbMaterial
  1
Global
 72
     0
 43
0.0208333333333333
 43
0.0
 43
0.0
 43
0.0
 43
0.0
 43
0.0208333333333333
 43
0.0
 43
0.0
 43
0.0
 43
0.0
 43
1.0
 43
0.0
 43
0.0
 43
0.0
 43
0.0
 43
1.0
 77
     0
 47
0.0208333333333333
 47
0.0
 47
0.0
 47
0.0
 47
0.0
 47
0.0208333333333333
 47
0.0
 47
0.0
 47
0.0
 47
0.0
 47
1.0
 47
0.0
 47
0.0
 47
0.0
 47
0.0
 47
1.0
171
     0
 49
0.0208333333333333
 49
0.0
 49
0.0
 49
0.0
 49
0.0
 49
0.0208333333333333
 49
0.0
 49
0.0
 49
0.0
 49
0.0
 49
1.0
 49
0.0
 49
0.0
 49
0.0
 49
0.0
 49
1.0
175
     0
142
0.0208333333333333
142
0.0
142
0.0
142
0.0
142
0.0
142
0.0208333333333333
142
0.0
142
0.0
142
0.0
142
0.0
142
1.0
142
0.0
142
0.0
142
0.0
142
0.0
142
1.0
179
     0
144
0.0208333333333333
144
0.0
144
0.0
144
0.0
144
0.0
144
0.0208333333333333
144
0.0
144
0.0
144
0.0
144
0.0
144
1.0
144
0.0
144
0.0
144
0.0
144
0.0
144
1.0
147
0.0208333333333333
147
0.0
147
0.0
147
0.0
147
0.0
147
0.0208333333333333
147
0.0
147
0.0
147
0.0
147
0.0
147
1.0
147
0.0
147
0.0
147
0.0
147
0.0
147
1.0
  0
MLEADERSTYLE
  5
67
102
{ACAD_REACTORS
330
66
102
}
330
66
100
AcDbMLeaderStyle
179
     2
170
     2
171
     1
172
     0
 90
        2
 40
0.0
 41
0.0
173
     1
 91
-1056964608
340
5B
 92
       -2
290
     1
 42
0.09
291
     1
 43
0.36
  3
Standard
 44
0.18
300

342
55
174
     1
178
     6
175
     1
176
     0
 93
-1056964608
 45
0.18
292
     0
297
     0
 46
0.18
 94
-1056964608
 47
1.0
 49
1.0
140
1.0
293
     1
141
0.0
294
     1
177
     0
142
1.0
295
     0
296
     0
143
0.125
271
     0
272
     9
273
     9
298
     1
  0
MLINESTYLE
  5
60
102
{ACAD_REACTORS
330
5F
102
}
330
5F
100
AcDbMlineStyle
  2
STANDARD
 70
     0
  3

 62
   256
 51
90.0
 52
90.0
 71
     2
 49
0.5
 62
   256
  6
BYLAYER
 49
-0.5
 62
   256
  6
BYLAYER
  0
ACDBPLACEHOLDER
  5
F
102
{ACAD_REACTORS
330
E
102
}
330
E
  0
SCALE
  5
43
102
{ACAD_REACTORS
330
42
102
}
330
42
100
AcDbScale
 70
     0
300
1:1
140
1.0
141
1.0
290
     1
  0
SCALE
  5
44
102
{ACAD_REACTORS
330
42
102
}
330
42
100
AcDbScale
 70
     0
300
1/128" = 1'-0"
140
0.0078125
141
12.0
290
     0
  0
SCALE
  5
45
102
{ACAD_REACTORS
330
42
102
}
330
42
100
AcDbScale
 70
     0
300
1/64" = 1'-0"
140
0.015625
141
12.0
290
     0
  0
SCALE
  5
46
102
{ACAD_REACTORS
330
42
102
}
330
42
100
AcDbScale
 70
     0
300
1/32" = 1'-0"
140
0.03125
141
12.0
290
     0
  0
SCALE
  5
47
102
{ACAD_REACTORS
330
42
102
}
330
42
100
AcDbScale
 70
     0
300
1/16" = 1'-0"
140
0.0625
141
12.0
290
     0
  0
SCALE
  5
48
102
{ACAD_REACTORS
330
42
102
}
330
42
100
AcDbScale
 70
     0
300
3/32" = 1'-0"
140
0.09375
141
12.0
290
     0
  0
SCALE
  5
49
102
{ACAD_REACTORS
330
42
102
}
330
42
100
AcDbScale
 70
     0
300
1/8" = 1'-0"
140
0.125
141
12.0
290
     0
  0
SCALE
  5
4A
102
{ACAD_REACTORS
330
42
102
}
330
42
100
AcDbScale
 70
     0
300
3/16" = 1'-0"
140
0.1875
141
12.0
290
     0
  0
SCALE
  5
4B
102
{ACAD_REACTORS
330
42
102
}
330
42
100
AcDbScale
 70
     0
300
1/4" = 1'-0"
140
0.25
141
12.0
290
     0
  0
SCALE
  5
4C
102
{ACAD_REACTORS
330
42
102
}
330
42
100
AcDbScale
 70
     0
300
3/8" = 1'-0"
140
0.375
141
12.0
290
     0
  0
SCALE
  5
4D
102
{ACAD_REACTORS
330
42
102
}
330
42
100
AcDbScale
 70
     0
300
1/2" = 1'-0"
140
0.5
141
12.0
290
     0
  0
SCALE
  5
4E
102
{ACAD_REACTORS
330
42
102
}
330
42
100
AcDbScale
 70
     0
300
3/4" = 1'-0"
140
0.75
141
12.0
290
     0
  0
SCALE
  5
4F
102
{ACAD_REACTORS
330
42
102
}
330
42
100
AcDbScale
 70
     0
300
1" = 1'-0"
140
1.0
141
12.0
290
     0
  0
SCALE
  5
50
102
{ACAD_REACTORS
330
42
102
}
330
42
100
AcDbScale
 70
     0
300
1-1/2" = 1'-0"
140
1.5
141
12.0
290
     0
  0
SCALE
  5
51
102
{ACAD_REACTORS
330
42
102
}
330
42
100
AcDbScale
 70
     0
300
3" = 1'-0"
140
3.0
141
12.0
290
     0
  0
SCALE
  5
52
102
{ACAD_REACTORS
330
42
102
}
330
42
100
AcDbScale
 70
     0
300
6" = 1'-0"
140
6.0
141
12.0
290
     0
  0
SCALE
  5
53
102
{ACAD_REACTORS
330
42
102
}
330
42
100
AcDbScale
 70
     0
300
1'-0" = 1'-0"
140
12.0
141
12.0
290
     0
  0
ACDBSECTIONVIEWSTYLE
  5
69
102
{ACAD_XDICTIONARY
360
A9
102
}
102
{ACAD_REACTORS
330
68
102
}
330
68
100
AcDbModelDocViewStyle
 70
     0
  3
Imperial24
290
     0
100
AcDbSectionViewStyle
 70
     0
 71
     0
 90
       78
 71
     1
340
55
 62
   256
 40
0.24
340
0
340
0
 62
   256
 40
0.24
300
I, O, Q, S, X, Z
 40
0.48
 90
        3
 40
0.18
 90
        1
 71
     2
340
5D
 90
       25
 62
   256
340
5D
 90
       50
 62
   256
 40
0.24
 40
0.0
 40
0.24
 71
     3
340
55
 62
   256
 40
0.24
 90
        1
 40
0.75
 90
        1
300
%<\AcVar ViewType \f "%tc1">% %<\AcVar ViewSectionStartId>%-%<\AcVar ViewSectionEndId>%\PSCALE %<\AcVar ViewScale \f "%sn">%
 71
     4
 62
   256
 62
   257
300
ANSI31
 40
1.0
 90
        0
290
     0
290
     0
 90
        6
 40
0.0
 40
1.570796326794896
 40
0.2617993877991494
 40
1.308996938995747
 40
-0.2617993877991494
 40
1.832595714594046
  0
TABLESTYLE
  5
65
102
{ACAD_XDICTIONARY
360
A6
102
}
102
{ACAD_REACTORS
330
64
102
}
330
64
100
AcDbTableStyle
280
     0
  3
Standard
 70
     0
 71
     0
 40
0.06
 41
0.06
280
     0
281
     0
  7
Standard
140
0.18
170
     2
 62
     0
 63
     7
283
     0
 90
      512
 91
        0
  1

274
    -2
284
     1
 64
     0
275
    -2
285
     1
 65
     0
276
    -2
286
     1
 66
     0
277
    -2
287
     1
 67
     0
278
    -2
288
     1
 68
     0
279
    -2
289
     1
 69
     0
  7
Standard
140
0.25
170
     5
 62
     0
 63
     7
283
     0
 90
      512
 91
        0
  1

274
    -2
284
     1
 64
     0
275
    -2
285
     1
 65
     0
276
    -2
286
     1
 66
     0
277
    -2
287
     1
 67
     0
278
    -2
288
     1
 68
     0
279
    -2
289
     1
 69
     0
  7
Standard
140
0.18
170
     5
 62
     0
 63
     7
283
     0
 90
      512
 91
        0
  1

274
    -2
284
     1
 64
     0
275
    -2
285
     1
 65
     0
276
    -2
286
     1
 66
     0
277
    -2
287
     1
 67
     0
278
    -2
288
     1
 68
     0
279
    -2
289
     1
 69
     0
  0
VISUALSTYLE
  5
2F
102
{ACAD_REACTORS
330
29
102
}
330
29
100
AcDbVisualStyle
  2
2dWireframe
 70
     4
177
     3
291
     0
 70
    58
 90
        0
176
     1
 90
        2
176
     1
 90
        0
176
     1
 90
        0
176
     1
 40
0.6
176
     1
 40
30.0
176
     1
 62
     7
420
 16777215
176
     1
 90
        1
176
     1
 90
        4
176
     1
 62
     7
176
     1
 62
   257
176
     1
 90
        1
176
     1
 90
        1
176
     1
 40
1.0
176
     1
 90
        0
176
     1
 62
   257
176
     1
 40
1.0
176
     1
 90
        1
176
     1
 90
        6
176
     1
 90
        2
176
     1
 62
     7
176
     1
 90
        5
176
     1
 90
        0
176
     1
 90
        0
176
     1
290
     0
176
     1
 90
        1
176
     1
 40
0.0
176
     1
 90
        0
176
     1
290
     1
176
     1
290
     1
176
     1
290
     0
176
     1
290
     0
176
     1
290
     0
176
     1
290
     0
176
     1
290
     0
176
     1
290
     0
176
     1
290
     0
176
     1
 90
       50
176
     1
 40
0.0
176
     1
 40
1.0
176
     1
 90
        0
176
     1
 62
    18
420
        0
176
     1
 90
       50
176
     1
 90
        3
176
     1
 62
     5
420
      255
176
     1
290
     0
176
     1
 90
       50
176
     1
 90
       50
176
     1
 90
       50
176
     1
290
     0
176
     1
 90
       50
176
     1
 62
   256
176
     0
 40
1.0
176
     0
 90
        2
176
     1
  1
strokes_ogs.tif
176
     1
290
     0
176
     1
 40
1.0
176
     1
 40
1.0
176
     1
1001
ACAD
1000
AcDbSavedByObjectVersion
1070
     0
  0
VISUALSTYLE
  5
2E
102
{ACAD_REACTORS
330
29
102
}
330
29
100
AcDbVisualStyle
  2
Basic
 70
     7
177
     3
291
     1
 70
    58
 90
        1
176
     1
 90
        0
176
     1
 90
        1
176
     1
 90
        0
176
     1
 40
0.6
176
     1
 40
30.0
176
     1
 62
     7
420
 16777215
176
     1
 90
        0
176
     1
 90
        4
176
     1
 62
     7
176
     1
 62
   257
176
     1
 90
        1
176
     1
 90
        1
176
     1
 40
1.0
176
     1
 90
        8
176
     1
 62
     7
176
     1
 40
1.0
176
     1
 90
        1
176
     1
 90
        6
176
     1
 90
        2
176
     1
 62
     7
176
     1
 90
        5
176
     1
 90
        0
176
     1
 90
        0
176
     1
290
     0
176
     1
 90
        1
176
     1
 40
0.0
176
     1
 90
        0
176
     1
290
     0
176
     1
290
     1
176
     1
290
     1
176
     1
290
     0
176
     1
290
     0
176
     1
290
     0
176
     1
290
     0
176
     1
290
     0
176
     1
290
     0
176
     1
 90
       50
176
     1
 40
0.0
176
     1
 40
1.0
176
     1
 90
        0
176
     1
 62
    18
420
        0
176
     1
 90
       50
176
     1
 90
        3
176
     1
 62
     5
420
      255
176
     1
290
     0
176
     1
 90
       50
176
     1
 90
       50
176
     1
 90
       50
176
     1
290
     0
176
     1
 90
       50
176
     1
 62
   256
176
     0
 40
1.0
176
     0
 90
        2
176
     1
  1
strokes_ogs.tif
176
     1
290
     0
176
     1
 40
1.0
176
     1
 40
1.0
176
     1
1001
ACAD
1000
AcDbSavedByObjectVersion
1070
     0
  0
VISUALSTYLE
  5
35
102
{ACAD_REACTORS
330
29
102
}
330
29
100
AcDbVisualStyle
  2
Brighten
 70
    12
177
     3
291
     1
 70
    58
 90
        2
176
     1
 90
        2
176
     1
 90
        0
176
     1
 90
        0
176
     1
 40
0.6
176
     1
 40
30.0
176
     1
 62
     7
420
 16777215
176
     1
 90
        1
176
     1
 90
        4
176
     1
 62
     7
176
     1
 62
   257
176
     1
 90
        1
176
     1
 90
        1
176
     1
 40
1.0
176
     1
 90
        8
176
     1
 62
     7
176
     1
 40
1.0
176
     1
 90
        1
176
     1
 90
        6
176
     1
 90
        2
176
     1
 62
     7
176
     1
 90
        5
176
     1
 90
        0
176
     1
 90
        0
176
     1
290
     0
176
     1
 90
        1
176
     1
 40
50.0
176
     1
 90
        0
176
     1
290
     0
176
     1
290
     1
176
     1
290
     1
176
     1
290
     0
176
     1
290
     0
176
     1
290
     0
176
     1
290
     0
176
     1
290
     0
176
     1
290
     0
176
     1
 90
       50
176
     1
 40
0.0
176
     1
 40
1.0
176
     1
 90
        0
176
     1
 62
    18
420
        0
176
     1
 90
       50
176
     1
 90
        3
176
     1
 62
     5
420
      255
176
     1
290
     0
176
     1
 90
       50
176
     1
 90
       50
176
     1
 90
       50
176
     1
290
     0
176
     1
 90
       50
176
     1
 62
   256
176
     0
 40
1.0
176
     0
 90
        2
176
     1
  1
strokes_ogs.tif
176
     1
290
     0
176
     1
 40
1.0
176
     1
 40
1.0
176
     1
1001
ACAD
1000
AcDbSavedByObjectVersion
1070
     0
  0
VISUALSTYLE
  5
39
102
{ACAD_REACTORS
330
29
102
}
330
29
100
AcDbVisualStyle
  2
ColorChange
 70
    16
177
     3
291
     1
 70
    58
 90
        2
176
     1
 90
        2
176
     1
 90
        3
176
     1
 90
        0
176
     1
 40
0.6
176
     1
 40
30.0
176
     1
 62
     8
420
  8421504
176
     1
 90
        1
176
     1
 90
        4
176
     1
 62
     7
176
     1
 62
   257
176
     1
 90
        1
176
     1
 90
        1
176
     1
 40
1.0
176
     1
 90
        8
176
     1
 62
     8
420
  8421504
176
     1
 40
1.0
176
     1
 90
        1
176
     1
 90
        6
176
     1
 90
        2
176
     1
 62
     7
176
     1
 90
        5
176
     1
 90
        0
176
     1
 90
        0
176
     1
290
     0
176
     1
 90
        1
176
     1
 40
0.0
176
     1
 90
        0
176
     1
290
     0
176
     1
290
     1
176
     1
290
     1
176
     1
290
     0
176
     1
290
     0
176
     1
290
     0
176
     1
290
     0
176
     1
290
     0
176
     1
290
     0
176
     1
 90
       50
176
     1
 40
0.0
176
     1
 40
1.0
176
     1
 90
        0
176
     1
 62
    18
420
        0
176
     1
 90
       50
176
     1
 90
        3
176
     1
 62
     5
420
      255
176
     1
290
     0
176
     1
 90
       50
176
     1
 90
       50
176
     1
 90
       50
176
     1
290
     0
176
     1
 90
       50
176
     1
 62
   256
176
     0
 40
1.0
176
     0
 90
        2
176
     1
  1
strokes_ogs.tif
176
     1
290
     0
176
     1
 40
1.0
176
     1
 40
1.0
176
     1
1001
ACAD
1000
AcDbSavedByObjectVersion
1070
     0
  0
VISUALSTYLE
  5
32
102
{ACAD_REACTORS
330
29
102
}
330
29
100
AcDbVisualStyle
  2
Conceptual
 70
     9
177
     3
291
     0
 70
    58
 90
        3
176
     1
 90
        2
176
     1
 90
        0
176
     1
 90
        0
176
     1
 40
0.6
176
     1
 40
30.0
176
     1
 62
     7
420
 16777215
176
     1
 90
        2
176
     1
 90
        2
176
     1
 62
     7
176
     1
 62
   257
176
     1
 90
        1
176
     1
 90
        1
176
     1
 40
179.0
176
     1
 90
        8
176
     1
 62
     7
176
     1
 40
1.0
176
     1
 90
        1
176
     1
 90
        6
176
     1
 90
        2
176
     1
 62
     7
176
     1
 90
        3
176
     1
 90
        0
176
     1
 90
        0
176
     1
290
     0
176
     1
 90
        1
176
     1
 40
0.0
176
     1
 90
        0
176
     1
290
     0
176
     1
290
     1
176
     1
290
     1
176
     1
290
     0
176
     1
290
     0
176
     1
290
     0
176
     1
290
     0
176
     1
290
     0
176
     1
290
     0
176
     1
 90
       50
176
     1
 40
0.0
176
     1
 40
1.0
176
     1
 90
        0
176
     1
 62
    18
420
        0
176
     1
 90
       50
176
     1
 90
        3
176
     1
 62
     5
420
      255
176
     1
290
     0
176
     1
 90
       50
176
     1
 90
       50
176
     1
 90
       50
176
     1
290
     0
176
     1
 90
       50
176
     1
 62
   256
176
     0
 40
1.0
176
     0
 90
        2
176
     1
  1
strokes_ogs.tif
176
     1
290
     0
176
     1
 40
1.0
176
     1
 40
1.0
176
     1
1001
ACAD
1000
AcDbSavedByObjectVersion
1070
     0
  0
VISUALSTYLE
  5
34
102
{ACAD_REACTORS
330
29
102
}
330
29
100
AcDbVisualStyle
  2
Dim
 70
    11
177
     3
291
     1
 70
    58
 90
        2
176
     1
 90
        2
176
     1
 90
        0
176
     1
 90
        0
176
     1
 40
0.6
176
     1
 40
30.0
176
     1
 62
     7
420
 16777215
176
     1
 90
        1
176
     1
 90
        4
176
     1
 62
     7
176
     1
 62
   257
176
     1
 90
        1
176
     1
 90
        1
176
     1
 40
1.0
176
     1
 90
        8
176
     1
 62
     7
176
     1
 40
1.0
176
     1
 90
        1
176
     1
 90
        6
176
     1
 90
        2
176
     1
 62
     7
176
     1
 90
        5
176
     1
 90
        0
176
     1
 90
        0
176
     1
290
     0
176
     1
 90
        1
176
     1
 40
-50.0
176
     1
 90
        0
176
     1
290
     0
176
     1
290
     1
176
     1
290
     1
176
     1
290
     0
176
     1
290
     0
176
     1
290
     0
176
     1
290
     0
176
     1
290
     0
176
     1
290
     0
176
     1
 90
       50
176
     1
 40
0.0
176
     1
 40
1.0
176
     1
 90
        0
176
     1
 62
    18
420
        0
176
     1
 90
       50
176
     1
 90
        3
176
     1
 62
     5
420
      255
176
     1
290
     0
176
     1
 90
       50
176
     1
 90
       50
176
     1
 90
       50
176
     1
290
     0
176
     1
 90
       50
176
     1
 62
   256
176
     0
 40
1.0
176
     0
 90
        2
176
     1
  1
strokes_ogs.tif
176
     1
290
     0
176
     1
 40
1.0
176
     1
 40
1.0
176
     1
1001
ACAD
1000
AcDbSavedByObjectVersion
1070
     0
  0
VISUALSTYLE
  5
41
102
{ACAD_REACTORS
330
29
102
}
330
29
100
AcDbVisualStyle
  2
EdgeColorOff
 70
    22
177
     3
291
     1
 70
    58
 90
        2
176
     0
 90
        2
176
     0
 90
        0
176
     0
 90
        0
176
     0
 40
0.6
176
     0
 40
30.0
176
     0
 62
     7
420
 16777215
176
     0
 90
        1
176
     0
 90
        4
176
     0
 62
     7
176
     0
 62
   257
176
     0
 90
        1
176
     0
 90
        1
176
     0
 40
1.0
176
     0
 90
        8
176
     2
 62
     7
176
     0
 40
1.0
176
     0
 90
        1
176
     0
 90
        6
176
     0
 90
        2
176
     0
 62
     7
176
     0
 90
        5
176
     0
 90
        0
176
     0
 90
        0
176
     0
290
     0
176
     0
 90
        1
176
     0
 40
0.0
176
     0
 90
        0
176
     0
290
     0
176
     0
290
     1
176
     0
290
     1
176
     0
290
     0
176
     0
290
     0
176
     0
290
     0
176
     0
290
     0
176
     0
290
     0
176
     0
290
     0
176
     0
 90
       50
176
     0
 40
0.0
176
     0
 40
1.0
176
     0
 90
        0
176
     0
 62
    18
420
        0
176
     0
 90
       50
176
     0
 90
        3
176
     0
 62
     5
420
      255
176
     0
290
     0
176
     0
 90
       50
176
     0
 90
       50
176
     0
 90
       50
176
     0
290
     0
176
     0
 90
       50
176
     0
 62
   256
176
     0
 40
1.0
176
     0
 90
        2
176
     0
  1
strokes_ogs.tif
176
     0
290
     0
176
     0
 40
1.0
176
     0
 40
1.0
176
     0
1001
ACAD
1000
AcDbSavedByObjectVersion
1070
     0
  0
VISUALSTYLE
  5
38
102
{ACAD_REACTORS
330
29
102
}
330
29
100
AcDbVisualStyle
  2
Facepattern
 70
    15
177
     3
291
     1
 70
    58
 90
        2
176
     1
 90
        2
176
     1
 90
        0
176
     1
 90
        0
176
     1
 40
0.6
176
     1
 40
30.0
176
     1
 62
     7
420
 16777215
176
     1
 90
        1
176
     1
 90
        4
176
     1
 62
     7
176
     1
 62
   257
176
     1
 90
        1
176
     1
 90
        1
176
     1
 40
1.0
176
     1
 90
        8
176
     1
 62
     7
176
     1
 40
1.0
176
     1
 90
        1
176
     1
 90
        6
176
     1
 90
        2
176
     1
 62
     7
176
     1
 90
        5
176
     1
 90
        0
176
     1
 90
        0
176
     1
290
     0
176
     1
 90
        1
176
     1
 40
0.0
176
     1
 90
        0
176
     1
290
     0
176
     1
290
     1
176
     1
290
     1
176
     1
290
     0
176
     1
290
     0
176
     1
290
     0
176
     1
290
     0
176
     1
290
     0
176
     1
290
     0
176
     1
 90
       50
176
     1
 40
0.0
176
     1
 40
1.0
176
     1
 90
        0
176
     1
 62
    18
420
        0
176
     1
 90
       50
176
     1
 90
        3
176
     1
 62
     5
420
      255
176
     1
290
     0
176
     1
 90
       50
176
     1
 90
       50
176
     1
 90
       50
176
     1
290
     0
176
     1
 90
       50
176
     1
 62
   256
176
     0
 40
1.0
176
     0
 90
        2
176
     1
  1
strokes_ogs.tif
176
     1
290
     0
176
     1
 40
1.0
176
     1
 40
1.0
176
     1
1001
ACAD
1000
AcDbSavedByObjectVersion
1070
     0
  0
VISUALSTYLE
  5
2A
102
{ACAD_REACTORS
330
29
102
}
330
29
100
AcDbVisualStyle
  2
Flat
 70
     0
177
     3
291
     1
 70
    58
 90
        2
176
     1
 90
        1
176
     1
 90
        1
176
     1
 90
        2
176
     1
 40
0.6
176
     1
 40
30.0
176
     1
 62
     7
420
 16777215
176
     1
 90
        0
176
     1
 90
        0
176
     1
 62
     7
176
     1
 62
   257
176
     1
 90
        1
176
     1
 90
        1
176
     1
 40
1.0
176
     1
 90
        8
176
     1
 62
     7
176
     1
 40
1.0
176
     1
 90
        1
176
     1
 90
        6
176
     1
 90
        2
176
     1
 62
     7
176
     1
 90
        5
176
     1
 90
        0
176
     1
 90
        0
176
     1
290
     0
176
     1
 90
       13
176
     1
 40
0.0
176
     1
 90
        0
176
     1
290
     0
176
     1
290
     1
176
     1
290
     1
176
     1
290
     0
176
     1
290
     0
176
     1
290
     0
176
     1
290
     0
176
     1
290
     0
176
     1
290
     0
176
     1
 90
       50
176
     1
 40
0.0
176
     1
 40
1.0
176
     1
 90
        0
176
     1
 62
    18
420
        0
176
     1
 90
       50
176
     1
 90
        3
176
     1
 62
     5
420
      255
176
     1
290
     0
176
     1
 90
       50
176
     1
 90
       50
176
     1
 90
       50
176
     1
290
     0
176
     1
 90
       50
176
     1
 62
   256
176
     0
 40
1.0
176
     0
 90
        2
176
     1
  1
strokes_ogs.tif
176
     1
290
     0
176
     1
 40
1.0
176
     1
 40
1.0
176
     1
1001
ACAD
1000
AcDbSavedByObjectVersion
1070
     0
  0
VISUALSTYLE
  5
2B
102
{ACAD_REACTORS
330
29
102
}
330
29
100
AcDbVisualStyle
  2
FlatWithEdges
 70
     1
177
     3
291
     1
 70
    58
 90
        2
176
     1
 90
        1
176
     1
 90
        1
176
     1
 90
        2
176
     1
 40
0.6
176
     1
 40
30.0
176
     1
 62
     7
420
 16777215
176
     1
 90
        1
176
     1
 90
        0
176
     1
 62
     7
176
     1
 62
   257
176
     1
 90
        1
176
     1
 90
        1
176
     1
 40
1.0
176
     1
 90
        0
176
     1
 62
   257
176
     1
 40
1.0
176
     1
 90
        1
176
     1
 90
        6
176
     1
 90
        2
176
     1
 62
     7
176
     1
 90
        5
176
     1
 90
        0
176
     1
 90
        0
176
     1
290
     0
176
     1
 90
       13
176
     1
 40
0.0
176
     1
 90
        0
176
     1
290
     0
176
     1
290
     1
176
     1
290
     1
176
     1
290
     0
176
     1
290
     0
176
     1
290
     0
176
     1
290
     0
176
     1
290
     0
176
     1
290
     0
176
     1
 90
       50
176
     1
 40
0.0
176
     1
 40
1.0
176
     1
 90
        0
176
     1
 62
    18
420
        0
176
     1
 90
       50
176
     1
 90
        3
176
     1
 62
     5
420
      255
176
     1
290
     0
176
     1
 90
       50
176
     1
 90
       50
176
     1
 90
       50
176
     1
290
     0
176
     1
 90
       50
176
     1
 62
   256
176
     0
 40
1.0
176
     0
 90
        2
176
     1
  1
strokes_ogs.tif
176
     1
290
     0
176
     1
 40
1.0
176
     1
 40
1.0
176
     1
1001
ACAD
1000
AcDbSavedByObjectVersion
1070
     0
  0
VISUALSTYLE
  5
2C
102
{ACAD_REACTORS
330
29
102
}
330
29
100
AcDbVisualStyle
  2
Gouraud
 70
     2
177
     3
291
     1
 70
    58
 90
        2
176
     1
 90
        2
176
     1
 90
        1
176
     1
 90
        2
176
     1
 40
0.6
176
     1
 40
30.0
176
     1
 62
     7
420
 16777215
176
     1
 90
        0
176
     1
 90
        0
176
     1
 62
     7
176
     1
 62
   257
176
     1
 90
        1
176
     1
 90
        1
176
     1
 40
1.0
176
     1
 90
        0
176
     1
 62
     7
176
     1
 40
1.0
176
     1
 90
        1
176
     1
 90
        6
176
     1
 90
        2
176
     1
 62
     7
176
     1
 90
        5
176
     1
 90
        0
176
     1
 90
        0
176
     1
290
     0
176
     1
 90
       13
176
     1
 40
0.0
176
     1
 90
        0
176
     1
290
     0
176
     1
290
     1
176
     1
290
     1
176
     1
290
     0
176
     1
290
     0
176
     1
290
     0
176
     1
290
     0
176
     1
290
     0
176
     1
290
     0
176
     1
 90
       50
176
     1
 40
0.0
176
     1
 40
1.0
176
     1
 90
        0
176
     1
 62
    18
420
        0
176
     1
 90
       50
176
     1
 90
        3
176
     1
 62
     5
420
      255
176
     1
290
     0
176
     1
 90
       50
176
     1
 90
       50
176
     1
 90
       50
176
     1
290
     0
176
     1
 90
       50
176
     1
 62
   256
176
     0
 40
1.0
176
     0
 90
        2
176
     1
  1
strokes_ogs.tif
176
     1
290
     0
176
     1
 40
1.0
176
     1
 40
1.0
176
     1
1001
ACAD
1000
AcDbSavedByObjectVersion
1070
     0
  0
VISUALSTYLE
  5
2D
102
{ACAD_REACTORS
330
29
102
}
330
29
100
AcDbVisualStyle
  2
GouraudWithEdges
 70
     3
177
     3
291
     1
 70
    58
 90
        2
176
     1
 90
        2
176
     1
 90
        1
176
     1
 90
        2
176
     1
 40
0.6
176
     1
 40
30.0
176
     1
 62
     7
420
 16777215
176
     1
 90
        1
176
     1
 90
        0
176
     1
 62
     7
176
     1
 62
   257
176
     1
 90
        1
176
     1
 90
        1
176
     1
 40
1.0
176
     1
 90
        0
176
     1
 62
   257
176
     1
 40
1.0
176
     1
 90
        1
176
     1
 90
        6
176
     1
 90
        2
176
     1
 62
     7
176
     1
 90
        5
176
     1
 90
        0
176
     1
 90
        0
176
     1
290
     0
176
     1
 90
       13
176
     1
 40
0.0
176
     1
 90
        0
176
     1
290
     0
176
     1
290
     1
176
     1
290
     1
176
     1
290
     0
176
     1
290
     0
176
     1
290
     0
176
     1
290
     0
176
     1
290
     0
176
     1
290
     0
176
     1
 90
       50
176
     1
 40
0.0
176
     1
 40
1.0
176
     1
 90
        0
176
     1
 62
    18
420
        0
176
     1
 90
       50
176
     1
 90
        3
176
     1
 62
     5
420
      255
176
     1
290
     0
176
     1
 90
       50
176
     1
 90
       50
176
     1
 90
       50
176
     1
290
     0
176
     1
 90
       50
176
     1
 62
   256
176
     0
 40
1.0
176
     0
 90
        2
176
     1
  1
strokes_ogs.tif
176
     1
290
     0
176
     1
 40
1.0
176
     1
 40
1.0
176
     1
1001
ACAD
1000
AcDbSavedByObjectVersion
1070
     0
  0
VISUALSTYLE
  5
31
102
{ACAD_REACTORS
330
29
102
}
330
29
100
AcDbVisualStyle
  2
Hidden
 70
     6
177
     3
291
     0
 70
    58
 90
        1
176
     1
 90
        2
176
     1
 90
        2
176
     1
 90
        0
176
     1
 40
0.6
176
     1
 40
30.0
176
     1
 62
     7
420
 16777215
176
     1
 90
        2
176
     1
 90
        2
176
     1
 62
     7
176
     1
 62
   257
176
     1
 90
        2
176
     1
 90
        1
176
     1
 40
40.0
176
     1
 90
        0
176
     1
 62
   257
176
     1
 40
1.0
176
     1
 90
        1
176
     1
 90
        6
176
     1
 90
        2
176
     1
 62
     7
176
     1
 90
        3
176
     1
 90
        0
176
     1
 90
        0
176
     1
290
     0
176
     1
 90
        1
176
     1
 40
0.0
176
     1
 90
        0
176
     1
290
     0
176
     1
290
     1
176
     1
290
     1
176
     1
290
     0
176
     1
290
     0
176
     1
290
     0
176
     1
290
     0
176
     1
290
     0
176
     1
290
     0
176
     1
 90
       50
176
     1
 40
0.0
176
     1
 40
1.0
176
     1
 90
        0
176
     1
 62
    18
420
        0
176
     1
 90
       50
176
     1
 90
        3
176
     1
 62
     5
420
      255
176
     1
290
     0
176
     1
 90
       50
176
     1
 90
       50
176
     1
 90
       50
176
     1
290
     0
176
     1
 90
       50
176
     1
 62
   256
176
     0
 40
1.0
176
     0
 90
        2
176
     1
  1
strokes_ogs.tif
176
     1
290
     0
176
     1
 40
1.0
176
     1
 40
1.0
176
     1
1001
ACAD
1000
AcDbSavedByObjectVersion
1070
     0
  0
VISUALSTYLE
  5
3F
102
{ACAD_REACTORS
330
29
102
}
330
29
100
AcDbVisualStyle
  2
JitterOff
 70
    20
177
     3
291
     1
 70
    58
 90
        2
176
     0
 90
        2
176
     0
 90
        0
176
     0
 90
        0
176
     0
 40
0.6
176
     0
 40
30.0
176
     0
 62
     7
420
 16777215
176
     0
 90
        1
176
     0
 90
        4
176
     0
 62
     7
176
     0
 62
   257
176
     0
 90
        1
176
     0
 90
        1
176
     0
 40
1.0
176
     0
 90
       10
176
     2
 62
     7
176
     0
 40
1.0
176
     0
 90
        1
176
     0
 90
        6
176
     0
 90
        2
176
     0
 62
     7
176
     0
 90
        5
176
     0
 90
        0
176
     0
 90
        0
176
     0
290
     0
176
     0
 90
        1
176
     0
 40
0.0
176
     0
 90
        0
176
     0
290
     0
176
     0
290
     1
176
     0
290
     1
176
     0
290
     0
176
     0
290
     0
176
     0
290
     0
176
     0
290
     0
176
     0
290
     0
176
     0
290
     0
176
     0
 90
       50
176
     0
 40
0.0
176
     0
 40
1.0
176
     0
 90
        0
176
     0
 62
    18
420
        0
176
     0
 90
       50
176
     0
 90
        3
176
     0
 62
     5
420
      255
176
     0
290
     0
176
     0
 90
       50
176
     0
 90
       50
176
     0
 90
       50
176
     0
290
     0
176
     0
 90
       50
176
     0
 62
   256
176
     0
 40
1.0
176
     0
 90
        2
176
     0
  1
strokes_ogs.tif
176
     0
290
     0
176
     0
 40
1.0
176
     0
 40
1.0
176
     0
1001
ACAD
1000
AcDbSavedByObjectVersion
1070
     0
  0
VISUALSTYLE
  5
37
102
{ACAD_REACTORS
330
29
102
}
330
29
100
AcDbVisualStyle
  2
Linepattern
 70
    14
177
     3
291
     1
 70
    58
 90
        2
176
     1
 90
        2
176
     1
 90
        0
176
     1
 90
        0
176
     1
 40
0.6
176
     1
 40
30.0
176
     1
 62
     7
420
 16777215
176
     1
 90
        1
176
     1
 90
        4
176
     1
 62
     7
176
     1
 62
   257
176
     1
 90
        7
176
     1
 90
        7
176
     1
 40
1.0
176
     1
 90
        8
176
     1
 62
     7
176
     1
 40
1.0
176
     1
 90
        1
176
     1
 90
        6
176
     1
 90
        2
176
     1
 62
     7
176
     1
 90
        5
176
     1
 90
        0
176
     1
 90
        0
176
     1
290
     0
176
     1
 90
        1
176
     1
 40
0.0
176
     1
 90
        0
176
     1
290
     0
176
     1
290
     1
176
     1
290
     1
176
     1
290
     0
176
     1
290
     0
176
     1
290
     0
176
     1
290
     0
176
     1
290
     0
176
     1
290
     0
176
     1
 90
       50
176
     1
 40
0.0
176
     1
 40
1.0
176
     1
 90
        0
176
     1
 62
    18
420
        0
176
     1
 90
       50
176
     1
 90
        3
176
     1
 62
     5
420
      255
176
     1
290
     0
176
     1
 90
       50
176
     1
 90
       50
176
     1
 90
       50
176
     1
290
     0
176
     1
 90
       50
176
     1
 62
   256
176
     0
 40
1.0
176
     0
 90
        2
176
     1
  1
strokes_ogs.tif
176
     1
290
     0
176
     1
 40
1.0
176
     1
 40
1.0
176
     1
1001
ACAD
1000
AcDbSavedByObjectVersion
1070
     0
  0
VISUALSTYLE
  5
40
102
{ACAD_REACTORS
330
29
102
}
330
29
100
AcDbVisualStyle
  2
OverhangOff
 70
    21
177
     3
291
     1
 70
    58
 90
        2
176
     0
 90
        2
176
     0
 90
        0
176
     0
 90
        0
176
     0
 40
0.6
176
     0
 40
30.0
176
     0
 62
     7
420
 16777215
176
     0
 90
        1
176
     0
 90
        4
176
     0
 62
     7
176
     0
 62
   257
176
     0
 90
        1
176
     0
 90
        1
176
     0
 40
1.0
176
     0
 90
        9
176
     2
 62
     7
176
     0
 40
1.0
176
     0
 90
        1
176
     0
 90
        6
176
     0
 90
        2
176
     0
 62
     7
176
     0
 90
        5
176
     0
 90
        0
176
     0
 90
        0
176
     0
290
     0
176
     0
 90
        1
176
     0
 40
0.0
176
     0
 90
        0
176
     0
290
     0
176
     0
290
     1
176
     0
290
     1
176
     0
290
     0
176
     0
290
     0
176
     0
290
     0
176
     0
290
     0
176
     0
290
     0
176
     0
290
     0
176
     0
 90
       50
176
     0
 40
0.0
176
     0
 40
1.0
176
     0
 90
        0
176
     0
 62
    18
420
        0
176
     0
 90
       50
176
     0
 90
        3
176
     0
 62
     5
420
      255
176
     0
290
     0
176
     0
 90
       50
176
     0
 90
       50
176
     0
 90
       50
176
     0
290
     0
176
     0
 90
       50
176
     0
 62
   256
176
     0
 40
1.0
176
     0
 90
        2
176
     0
  1
strokes_ogs.tif
176
     0
290
     0
176
     0
 40
1.0
176
     0
 40
1.0
176
     0
1001
ACAD
1000
AcDbSavedByObjectVersion
1070
     0
  0
VISUALSTYLE
  5
33
102
{ACAD_REACTORS
330
29
102
}
330
29
100
AcDbVisualStyle
  2
Realistic
 70
     8
177
     3
291
     0
 70
    58
 90
        2
176
     1
 90
        3
176
     1
 90
        0
176
     1
 90
        2
176
     1
 40
0.6
176
     1
 40
30.0
176
     1
 62
     7
420
 16777215
176
     1
 90
        0
176
     1
 90
        0
176
     1
 62
     7
176
     1
 62
   257
176
     1
 90
        1
176
     1
 90
        1
176
     1
 40
1.0
176
     1
 90
        8
176
     1
 62
   257
176
     1
 40
1.0
176
     1
 90
        1
176
     1
 90
        6
176
     1
 90
        2
176
     1
 62
     7
176
     1
 90
        3
176
     1
 90
        0
176
     1
 90
        0
176
     1
290
     0
176
     1
 90
       13
176
     1
 40
0.0
176
     1
 90
        0
176
     1
290
     0
176
     1
290
     1
176
     1
290
     1
176
     1
290
     0
176
     1
290
     0
176
     1
290
     0
176
     1
290
     0
176
     1
290
     0
176
     1
290
     0
176
     1
 90
       50
176
     1
 40
0.0
176
     1
 40
1.0
176
     1
 90
        0
176
     1
 62
    18
420
        0
176
     1
 90
       50
176
     1
 90
        3
176
     1
 62
     5
420
      255
176
     1
290
     0
176
     1
 90
       50
176
     1
 90
       50
176
     1
 90
       50
176
     1
290
     0
176
     1
 90
       50
176
     1
 62
   256
176
     0
 40
1.0
176
     0
 90
        2
176
     1
  1
strokes_ogs.tif
176
     1
290
     0
176
     1
 40
1.0
176
     1
 40
1.0
176
     1
1001
ACAD
1000
AcDbSavedByObjectVersion
1070
     0
  0
VISUALSTYLE
  5
3E
102
{ACAD_REACTORS
330
29
102
}
330
29
100
AcDbVisualStyle
  2
Shaded
 70
    27
177
     3
291
     0
 70
    58
 90
        2
176
     1
 90
        2
176
     1
 90
        1
176
     1
 90
        2
176
     1
 40
0.6
176
     1
 40
30.0
176
     1
 62
     7
420
 16777215
176
     1
 90
        0
176
     1
 90
        4
176
     1
 62
     7
176
     1
 62
   257
176
     1
 90
        1
176
     1
 90
        1
176
     1
 40
1.0
176
     1
 90
        8
176
     1
 62
   257
176
     1
 40
1.0
176
     1
 90
        1
176
     1
 90
        6
176
     1
 90
        2
176
     1
 62
     8
420
  7895160
176
     1
 90
        3
176
     1
 90
        0
176
     1
 90
        0
176
     1
290
     0
176
     1
 90
        5
176
     1
 40
0.0
176
     1
 90
        0
176
     1
290
     0
176
     1
290
     1
176
     1
290
     1
176
     1
290
     0
176
     1
290
     0
176
     1
290
     0
176
     1
290
     0
176
     1
290
     0
176
     1
290
     0
176
     1
 90
       50
176
     1
 40
0.0
176
     1
 40
1.0
176
     1
 90
        0
176
     1
 62
    18
420
        0
176
     1
 90
       50
176
     1
 90
        3
176
     1
 62
     5
420
      255
176
     1
290
     0
176
     1
 90
       50
176
     1
 90
       50
176
     1
 90
       50
176
     1
290
     0
176
     1
 90
       50
176
     1
 62
   256
176
     0
 40
1.0
176
     0
 90
        2
176
     1
  1
strokes_ogs.tif
176
     1
290
     0
176
     1
 40
1.0
176
     1
 40
1.0
176
     1
1001
ACAD
1000
AcDbSavedByObjectVersion
1070
     0
  0
VISUALSTYLE
  5
3D
102
{ACAD_REACTORS
330
29
102
}
330
29
100
AcDbVisualStyle
  2
Shaded with edges
 70
    26
177
     3
291
     0
 70
    58
 90
        2
176
     1
 90
        2
176
     1
 90
        1
176
     1
 90
        2
176
     1
 40
0.6
176
     1
 40
30.0
176
     1
 62
     7
420
 16777215
176
     1
 90
        1
176
     1
 90
        2
176
     1
 62
     7
176
     1
 62
   257
176
     1
 90
        2
176
     1
 90
        1
176
     1
 40
1.0
176
     1
 90
        8
176
     1
 62
   257
176
     1
 40
1.0
176
     1
 90
        1
176
     1
 90
        6
176
     1
 90
        2
176
     1
 62
     7
176
     1
 90
        3
176
     1
 90
        0
176
     1
 90
        0
176
     1
290
     0
176
     1
 90
        5
176
     1
 40
0.0
176
     1
 90
        0
176
     1
290
     0
176
     1
290
     1
176
     1
290
     1
176
     1
290
     0
176
     1
290
     0
176
     1
290
     0
176
     1
290
     0
176
     1
290
     0
176
     1
290
     0
176
     1
 90
       50
176
     1
 40
0.0
176
     1
 40
1.0
176
     1
 90
        0
176
     1
 62
    18
420
        0
176
     1
 90
       50
176
     1
 90
        3
176
     1
 62
     5
420
      255
176
     1
290
     0
176
     1
 90
       50
176
     1
 90
       50
176
     1
 90
       50
176
     1
290
     0
176
     1
 90
       50
176
     1
 62
   256
176
     0
 40
1.0
176
     0
 90
        2
176
     1
  1
strokes_ogs.tif
176
     1
290
     0
176
     1
 40
1.0
176
     1
 40
1.0
176
     1
1001
ACAD
1000
AcDbSavedByObjectVersion
1070
     0
  0
VISUALSTYLE
  5
3A
102
{ACAD_REACTORS
330
29
102
}
330
29
100
AcDbVisualStyle
  2
Shades of Gray
 70
    23
177
     3
291
     0
 70
    58
 90
        2
176
     1
 90
        2
176
     1
 90
        3
176
     1
 90
        0
176
     1
 40
0.6
176
     1
 40
30.0
176
     1
 62
     7
420
 16777215
176
     1
 90
        2
176
     1
 90
        2
176
     1
 62
     7
176
     1
 62
     7
176
     1
 90
        1
176
     1
 90
        1
176
     1
 40
40.0
176
     1
 90
        8
176
     1
 62
     7
176
     1
 40
1.0
176
     1
 90
        1
176
     1
 90
        6
176
     1
 90
        2
176
     1
 62
     7
176
     1
 90
        3
176
     1
 90
        0
176
     1
 90
        0
176
     1
290
     0
176
     1
 90
        1
176
     1
 40
0.0
176
     1
 90
        0
176
     1
290
     0
176
     1
290
     1
176
     1
290
     1
176
     1
290
     0
176
     1
290
     0
176
     1
290
     0
176
     1
290
     0
176
     1
290
     0
176
     1
290
     0
176
     1
 90
       50
176
     1
 40
0.0
176
     1
 40
1.0
176
     1
 90
        0
176
     1
 62
    18
420
        0
176
     1
 90
       50
176
     1
 90
        3
176
     1
 62
     5
420
      255
176
     1
290
     0
176
     1
 90
       50
176
     1
 90
       50
176
     1
 90
       50
176
     1
290
     0
176
     1
 90
       50
176
     1
 62
   256
176
     0
 40
1.0
176
     0
 90
        2
176
     1
  1
strokes_ogs.tif
176
     1
290
     0
176
     1
 40
1.0
176
     1
 40
1.0
176
     1
1001
ACAD
1000
AcDbSavedByObjectVersion
1070
     0
  0
VISUALSTYLE
  5
3B
102
{ACAD_REACTORS
330
29
102
}
330
29
100
AcDbVisualStyle
  2
Sketchy
 70
    24
177
     3
291
     0
 70
    58
 90
        1
176
     1
 90
        2
176
     1
 90
        2
176
     1
 90
        0
176
     1
 40
0.6
176
     1
 40
30.0
176
     1
 62
     7
420
 16777215
176
     1
 90
        2
176
     1
 90
        2
176
     1
 62
     7
176
     1
 62
     7
176
     1
 90
        1
176
     1
 90
        1
176
     1
 40
40.0
176
     1
 90
       11
176
     1
 62
     7
176
     1
 40
1.0
176
     1
 90
        1
176
     1
 90
        6
176
     1
 90
        2
176
     1
 62
     7
176
     1
 90
        6
176
     1
 90
        0
176
     1
 90
        0
176
     1
290
     0
176
     1
 90
        1
176
     1
 40
0.0
176
     1
 90
        0
176
     1
290
     0
176
     1
290
     1
176
     1
290
     1
176
     1
290
     0
176
     1
290
     0
176
     1
290
     0
176
     1
290
     0
176
     1
290
     0
176
     1
290
     0
176
     1
 90
       50
176
     1
 40
0.0
176
     1
 40
1.0
176
     1
 90
        0
176
     1
 62
    18
420
        0
176
     1
 90
       50
176
     1
 90
        3
176
     1
 62
     5
420
      255
176
     1
290
     0
176
     1
 90
       50
176
     1
 90
       50
176
     1
 90
       50
176
     1
290
     0
176
     1
 90
       50
176
     1
 62
   256
176
     0
 40
1.0
176
     0
 90
        2
176
     1
  1
strokes_ogs.tif
176
     1
290
     0
176
     1
 40
1.0
176
     1
 40
1.0
176
     1
1001
ACAD
1000
AcDbSavedByObjectVersion
1070
     0
  0
VISUALSTYLE
  5
36
102
{ACAD_REACTORS
330
29
102
}
330
29
100
AcDbVisualStyle
  2
Thicken
 70
    13
177
     3
291
     1
 70
    58
 90
        2
176
     1
 90
        2
176
     1
 90
        0
176
     1
 90
        0
176
     1
 40
0.6
176
     1
 40
30.0
176
     1
 62
     7
420
 16777215
176
     1
 90
        1
176
     1
 90
        4
176
     1
 62
     7
176
     1
 62
   257
176
     1
 90
        1
176
     1
 90
        1
176
     1
 40
1.0
176
     1
 90
       12
176
     1
 62
     7
176
     1
 40
1.0
176
     1
 90
        1
176
     1
 90
        6
176
     1
 90
        2
176
     1
 62
     7
176
     1
 90
        5
176
     1
 90
        0
176
     1
 90
        0
176
     1
290
     0
176
     1
 90
        1
176
     1
 40
0.0
176
     1
 90
        0
176
     1
290
     0
176
     1
290
     1
176
     1
290
     1
176
     1
290
     0
176
     1
290
     0
176
     1
290
     0
176
     1
290
     0
176
     1
290
     0
176
     1
290
     0
176
     1
 90
       50
176
     1
 40
0.0
176
     1
 40
1.0
176
     1
 90
        0
176
     1
 62
    18
420
        0
176
     1
 90
       50
176
     1
 90
        3
176
     1
 62
     5
420
      255
176
     1
290
     0
176
     1
 90
       50
176
     1
 90
       50
176
     1
 90
       50
176
     1
290
     0
176
     1
 90
       50
176
     1
 62
   256
176
     0
 40
1.0
176
     0
 90
        2
176
     1
  1
strokes_ogs.tif
176
     1
290
     0
176
     1
 40
1.0
176
     1
 40
1.0
176
     1
1001
ACAD
1000
AcDbSavedByObjectVersion
1070
     0
  0
VISUALSTYLE
  5
30
102
{ACAD_REACTORS
330
29
102
}
330
29
100
AcDbVisualStyle
  2
Wireframe
 70
     5
177
     3
291
     0
 70
    58
 90
        0
176
     1
 90
        2
176
     1
 90
        0
176
     1
 90
        0
176
     1
 40
0.6
176
     1
 40
30.0
176
     1
 62
     7
420
 16777215
176
     1
 90
        1
176
     1
 90
        4
176
     1
 62
     7
176
     1
 62
   257
176
     1
 90
        1
176
     1
 90
        1
176
     1
 40
1.0
176
     1
 90
        0
176
     1
 62
   257
176
     1
 40
1.0
176
     1
 90
        1
176
     1
 90
        6
176
     1
 90
        2
176
     1
 62
     7
176
     1
 90
        3
176
     1
 90
        0
176
     1
 90
        0
176
     1
290
     0
176
     1
 90
        1
176
     1
 40
0.0
176
     1
 90
        0
176
     1
290
     0
176
     1
290
     1
176
     1
290
     1
176
     1
290
     0
176
     1
290
     0
176
     1
290
     0
176
     1
290
     0
176
     1
290
     0
176
     1
290
     0
176
     1
 90
       50
176
     1
 40
0.0
176
     1
 40
1.0
176
     1
 90
        0
176
     1
 62
    18
420
        0
176
     1
 90
       50
176
     1
 90
        3
176
     1
 62
     5
420
      255
176
     1
290
     0
176
     1
 90
       50
176
     1
 90
       50
176
     1
 90
       50
176
     1
290
     0
176
     1
 90
       50
176
     1
 62
   256
176
     0
 40
1.0
176
     0
 90
        2
176
     1
  1
strokes_ogs.tif
176
     1
290
     0
176
     1
 40
1.0
176
     1
 40
1.0
176
     1
1001
ACAD
1000
AcDbSavedByObjectVersion
1070
     0
  0
VISUALSTYLE
  5
3C
102
{ACAD_REACTORS
330
29
102
}
330
29
100
AcDbVisualStyle
  2
X-Ray
 70
    25
177
     3
291
     0
 70
    58
 90
        2
176
     1
 90
        2
176
     1
 90
        1
176
     1
 90
        1
176
     1
 40
0.5
176
     1
 40
30.0
176
     1
 62
     7
420
 16777215
176
     1
 90
        1
176
     1
 90
        0
176
     1
 62
     7
176
     1
 62
   257
176
     1
 90
        1
176
     1
 90
        1
176
     1
 40
1.0
176
     1
 90
        8
176
     1
 62
     7
176
     1
 40
1.0
176
     1
 90
        1
176
     1
 90
        6
176
     1
 90
        2
176
     1
 62
     7
176
     1
 90
        3
176
     1
 90
        0
176
     1
 90
        0
176
     1
290
     0
176
     1
 90
       13
176
     1
 40
0.0
176
     1
 90
        0
176
     1
290
     0
176
     1
290
     1
176
     1
290
     1
176
     1
290
     0
176
     1
290
     0
176
     1
290
     0
176
     1
290
     0
176
     1
290
     0
176
     1
290
     0
176
     1
 90
       50
176
     1
 40
0.0
176
     1
 40
1.0
176
     1
 90
        0
176
     1
 62
    18
420
        0
176
     1
 90
       50
176
     1
 90
        3
176
     1
 62
     5
420
      255
176
     1
290
     0
176
     1
 90
       50
176
     1
 90
       50
176
     1
 90
       50
176
     1
290
     0
176
     1
 90
       50
176
     1
 62
   256
176
     0
 40
1.0
176
     0
 90
        2
176
     1
  1
strokes_ogs.tif
176
     1
290
     0
176
     1
 40
1.0
176
     1
 40
1.0
176
     1
1001
ACAD
1000
AcDbSavedByObjectVersion
1070
     0
  0
DICTIONARYVAR
  5
A5
102
{ACAD_REACTORS
330
A0
102
}
330
A0
100
DictionaryVariables
280
     0
  1
1:1
  0
DICTIONARYVAR
  5
A2
102
{ACAD_REACTORS
330
A0
102
}
330
A0
100
DictionaryVariables
280
     0
  1
STANDARD
  0
DICTIONARYVAR
  5
A1
102
{ACAD_REACTORS
330
A0
102
}
330
A0
100
DictionaryVariables
280
     0
  1
STANDARD
  0
DICTIONARYVAR
  5
A3
102
{ACAD_REACTORS
330
A0
102
}
330
A0
100
DictionaryVariables
280
     0
  1
Imperial24
  0
DICTIONARYVAR
  5
A4
102
{ACAD_REACTORS
330
A0
102
}
330
A0
100
DictionaryVariables
280
     0
  1
Imperial24
  0
IRD_DSC_RECORD
  5
7B
102
{ACAD_REACTORS
330
7A
102
}
330
7A
100
CIrdBaseRecord
1070
   516
1071
        0
1004
0115000043006C0061007300730000004900720064000000000049007200640000005400680065002000620061007300650020007300750070006500720063006C006100730073000000490072006400200043006C0061007300730020005600200031002E0030003200000000000000
100
CIrdDscRecord
1071
     5377
1000
Class-_-Ird
1071
        0
  0
IRD_DSC_RECORD
  5
7C
102
{ACAD_REACTORS
330
7A
102
}
330
7A
100
CIrdBaseRecord
1070
   516
1071
        0
1004
0117000043006C006100730073004E0075006D0065007200690063000000490072006400000043006C006100730073000000490072006400000054006800650020006200610073006500200063006C00610073007300200066006F007200200074006800650020006E0075006D006500720069006300730000004900720064
1004
00200043006C0061007300730020005600200031002E0030003200000000000000
100
CIrdDscRecord
1071
     5889
1000
ClassNumeric-_-Ird
1071
        0
  0
IRD_DSC_RECORD
  5
7D
102
{ACAD_REACTORS
330
7A
102
}
330
7A
100
CIrdBaseRecord
1070
   516
1071
        0
1004
0116000043006C006100730073005200650061006C000000490072006400000043006C006100730073004E0075006D0065007200690063000000490072006400000054006800650020007200650061006C002000760061006C00750065000000490072006400200043006C0061007300730020005600200031002E00300032
1004
00000000000000
100
CIrdDscRecord
1071
     5633
1000
ClassReal-_-Ird
1071
        0
  0
IRD_DSC_RECORD
  5
7E
102
{ACAD_REACTORS
330
7A
102
}
330
7A
100
CIrdBaseRecord
1070
   516
1071
        0
1004
0116000043006C0061007300730043006800610072000000490072006400000043006C006100730073000000490072006400000054006800650020006300680061007200610063007400650072002000760061006C00750065000000490072006400200043006C0061007300730020005600200031002E0030003200000000
1004
000000
100
CIrdDscRecord
1071
     5633
1000
ClassChar-_-Ird
1071
        0
  0
IRD_DSC_RECORD
  5
7F
102
{ACAD_REACTORS
330
7A
102
}
330
7A
100
CIrdBaseRecord
1070
   516
1071
        0
1004
013000007100750061007200740069006500720065000000410044004500000043006C006100730073000000490072006400000000000000060000800000660069006400000043006C006100730073005200650061006C0000004900720064000000000000000000008000006E0061006D006500000043006C006100730073
1004
00430068006100720000004900720064000000000000000000008000006E0061006D0065005F00640065005F0066007200000043006C00610073007300430068006100720000004900720064000000000000000000008000006E0061006D0065005F0064006500000043006C00610073007300430068006100720000004900
1004
720064000000000000000000008000006E0061006D0065005F0066007200000043006C006100730073004300680061007200000049007200640000000000000000000080000063006F006C006F0072005F00680074006D006C00000043006C0061007300730043006800610072000000490072006400000000000000000000
1004
00
100
CIrdDscRecord
1071
    12289
1000
quartiere-_-ADE
1071
        0
  0
DICTIONARY
  5
AB
330
6B
100
AcDbDictionary
280
     1
281
     1
  3
ACAD_XREC_ROUNDTRIP
360
AC
  0
DICTIONARY
  5
1A
330
19
100
AcDbDictionary
280
     1
281
     1
  3
BUMPTILE
360
1C
  3
DIFFUSETILE
360
1B
  3
OPACITYTILE
360
1F
  3
REFLECTIONTILE
360
1E
  3
REFRACTIONTILE
360
20
  3
SPECULARTILE
360
1D
  0
DICTIONARY
  5
12
330
11
100
AcDbDictionary
280
     1
281
     1
  3
BUMPTILE
360
14
  3
DIFFUSETILE
360
13
  3
OPACITYTILE
360
17
  3
REFLECTIONTILE
360
16
  3
REFRACTIONTILE
360
18
  3
SPECULARTILE
360
15
  0
DICTIONARY
  5
22
330
21
100
AcDbDictionary
280
     1
281
     1
  3
BUMPTILE
360
24
  3
DIFFUSETILE
360
23
  3
OPACITYTILE
360
27
  3
REFLECTIONTILE
360
26
  3
REFRACTIONTILE
360
28
  3
SPECULARTILE
360
25
  0
DICTIONARY
  5
A9
330
69
100
AcDbDictionary
280
     1
281
     1
  3
ACAD_XREC_ROUNDTRIP
360
AA
  0
DICTIONARY
  5
A6
330
65
100
AcDbDictionary
280
     1
281
     1
  3
ACAD_ROUNDTRIP_2008_TABLESTYLE_CELLSTYLEMAP
360
A7
  0
XRECORD
  5
AC
102
{ACAD_REACTORS
330
AB
102
}
330
AB
100
AcDbXrecord
280
     1
102
DISPLAYNAME
  1
Imperial24
102
FLAGS
 90
        0
  0
XRECORD
  5
1C
102
{ACAD_REACTORS
330
1A
102
}
330
1A
100
AcDbXrecord
280
     1
270
     1
271
     1
  0
XRECORD
  5
1B
102
{ACAD_REACTORS
330
1A
102
}
330
1A
100
AcDbXrecord
280
     1
270
     1
271
     1
  0
XRECORD
  5
1F
102
{ACAD_REACTORS
330
1A
102
}
330
1A
100
AcDbXrecord
280
     1
270
     1
271
     1
  0
XRECORD
  5
1E
102
{ACAD_REACTORS
330
1A
102
}
330
1A
100
AcDbXrecord
280
     1
270
     1
271
     1
  0
XRECORD
  5
20
102
{ACAD_REACTORS
330
1A
102
}
330
1A
100
AcDbXrecord
280
     1
270
     1
271
     1
  0
XRECORD
  5
1D
102
{ACAD_REACTORS
330
1A
102
}
330
1A
100
AcDbXrecord
280
     1
270
     1
271
     1
  0
XRECORD
  5
14
102
{ACAD_REACTORS
330
12
102
}
330
12
100
AcDbXrecord
280
     1
270
     1
271
     1
  0
XRECORD
  5
13
102
{ACAD_REACTORS
330
12
102
}
330
12
100
AcDbXrecord
280
     1
270
     1
271
     1
  0
XRECORD
  5
17
102
{ACAD_REACTORS
330
12
102
}
330
12
100
AcDbXrecord
280
     1
270
     1
271
     1
  0
XRECORD
  5
16
102
{ACAD_REACTORS
330
12
102
}
330
12
100
AcDbXrecord
280
     1
270
     1
271
     1
  0
XRECORD
  5
18
102
{ACAD_REACTORS
330
12
102
}
330
12
100
AcDbXrecord
280
     1
270
     1
271
     1
  0
XRECORD
  5
15
102
{ACAD_REACTORS
330
12
102
}
330
12
100
AcDbXrecord
280
     1
270
     1
271
     1
  0
XRECORD
  5
24
102
{ACAD_REACTORS
330
22
102
}
330
22
100
AcDbXrecord
280
     1
270
     1
271
     1
  0
XRECORD
  5
23
102
{ACAD_REACTORS
330
22
102
}
330
22
100
AcDbXrecord
280
     1
270
     1
271
     1
  0
XRECORD
  5
27
102
{ACAD_REACTORS
330
22
102
}
330
22
100
AcDbXrecord
280
     1
270
     1
271
     1
  0
XRECORD
  5
26
102
{ACAD_REACTORS
330
22
102
}
330
22
100
AcDbXrecord
280
     1
270
     1
271
     1
  0
XRECORD
  5
28
102
{ACAD_REACTORS
330
22
102
}
330
22
100
AcDbXrecord
280
     1
270
     1
271
     1
  0
XRECORD
  5
25
102
{ACAD_REACTORS
330
22
102
}
330
22
100
AcDbXrecord
280
     1
270
     1
271
     1
  0
XRECORD
  5
AA
102
{ACAD_REACTORS
330
A9
102
}
330
A9
100
AcDbXrecord
280
     1
102
DISPLAYNAME
  1
Imperial24
102
FLAGS
 90
        0
  0
CELLSTYLEMAP
  5
A7
102
{ACAD_REACTORS
330
A6
102
}
330
A6
100
AcDbCellStyleMap
 90
        3
300
CELLSTYLE
  1
TABLEFORMAT_BEGIN
 90
        5
170
     1
 91
        0
 92
    32768
 62
   257
 93
        1
300
CONTENTFORMAT
  1
CONTENTFORMAT_BEGIN
 90
        0
 91
        0
 92
      512
 93
        0
300

 40
0.0
140
1.0
 94
        5
 62
     0
340
55
144
0.25
309
CONTENTFORMAT_END
171
     0
 94
        0
309
TABLEFORMAT_END
  1
CELLSTYLE_BEGIN
 90
        1
 91
        1
300
_TITLE
309
CELLSTYLE_END
300
CELLSTYLE
  1
TABLEFORMAT_BEGIN
 90
        5
170
     1
 91
        0
 92
        0
 62
   257
 93
        1
300
CONTENTFORMAT
  1
CONTENTFORMAT_BEGIN
 90
        0
 91
        0
 92
      512
 93
        0
300

 40
0.0
140
1.0
 94
        5
 62
     0
340
55
144
0.18
309
CONTENTFORMAT_END
171
     0
 94
        0
309
TABLEFORMAT_END
  1
CELLSTYLE_BEGIN
 90
        2
 91
        1
300
_HEADER
309
CELLSTYLE_END
300
CELLSTYLE
  1
TABLEFORMAT_BEGIN
 90
        5
170
     1
 91
        0
 92
        0
 62
   257
 93
        1
300
CONTENTFORMAT
  1
CONTENTFORMAT_BEGIN
 90
        0
 91
        0
 92
      512
 93
        0
300

 40
0.0
140
1.0
 94
        2
 62
     0
340
55
144
0.18
309
CONTENTFORMAT_END
171
     0
 94
        0
309
TABLEFORMAT_END
  1
CELLSTYLE_BEGIN
 90
        3
 91
        2
300
_DATA
309
CELLSTYLE_END
  0
ENDSEC
  0
EOF
