  0
SECTION
  2
HEADER
  9
$ACADVER
  1
AC1027
  9
$ACADMAINTVER
 70
   125
  9
$DWGCODEPAGE
  3
ANSI_1252
  9
$REQUIREDVERSIONS
160
                 0
  9
$INSBASE
 10
0.0
 20
0.0
 30
0.0
  9
$EXTMIN
 10
2584181.040996777
 20
1219181.065855132
 30
0.0
  9
$EXTMAX
 10
2589482.817964876
 20
1223605.760796511
 30
0.0
  9
$LIMMIN
 10
0.0
 20
0.0
  9
$LIMMAX
 10
12.0
 20
9.0
  9
$ORTHOMODE
 70
     0
  9
$REGENMODE
 70
     1
  9
$FILLMODE
 70
     1
  9
$QTEXTMODE
 70
     0
  9
$MIRRTEXT
 70
     0
  9
$LTSCALE
 40
1.0
  9
$ATTMODE
 70
     1
  9
$TEXTSIZE
 40
0.2
  9
$TRACEWID
 40
0.05
  9
$TEXTSTYLE
  7
Standard
  9
$CLAYER
  8
0
  9
$CELTYPE
  6
ByLayer
  9
$CECOLOR
 62
   256
  9
$CELTSCALE
 40
1.0
  9
$DISPSILH
 70
     0
  9
$DIMSCALE
 40
1.0
  9
$DIMASZ
 40
0.18
  9
$DIMEXO
 40
0.0625
  9
$DIMDLI
 40
0.38
  9
$DIMRND
 40
0.0
  9
$DIMDLE
 40
0.0
  9
$DIMEXE
 40
0.18
  9
$DIMTP
 40
0.0
  9
$DIMTM
 40
0.0
  9
$DIMTXT
 40
0.18
  9
$DIMCEN
 40
0.09
  9
$DIMTSZ
 40
0.0
  9
$DIMTOL
 70
     0
  9
$DIMLIM
 70
     0
  9
$DIMTIH
 70
     1
  9
$DIMTOH
 70
     1
  9
$DIMSE1
 70
     0
  9
$DIMSE2
 70
     0
  9
$DIMTAD
 70
     0
  9
$DIMZIN
 70
     0
  9
$DIMBLK
  1

  9
$DIMASO
 70
     1
  9
$DIMSHO
 70
     1
  9
$DIMPOST
  1

  9
$DIMAPOST
  1

  9
$DIMALT
 70
     0
  9
$DIMALTD
 70
     2
  9
$DIMALTF
 40
25.4
  9
$DIMLFAC
 40
1.0
  9
$DIMTOFL
 70
     0
  9
$DIMTVP
 40
0.0
  9
$DIMTIX
 70
     0
  9
$DIMSOXD
 70
     0
  9
$DIMSAH
 70
     0
  9
$DIMBLK1
  1

  9
$DIMBLK2
  1

  9
$DIMSTYLE
  2
Standard
  9
$DIMCLRD
 70
     0
  9
$DIMCLRE
 70
     0
  9
$DIMCLRT
 70
     0
  9
$DIMTFAC
 40
1.0
  9
$DIMGAP
 40
0.09
  9
$DIMJUST
 70
     0
  9
$DIMSD1
 70
     0
  9
$DIMSD2
 70
     0
  9
$DIMTOLJ
 70
     1
  9
$DIMTZIN
 70
     0
  9
$DIMALTZ
 70
     0
  9
$DIMALTTZ
 70
     0
  9
$DIMUPT
 70
     0
  9
$DIMDEC
 70
     4
  9
$DIMTDEC
 70
     4
  9
$DIMALTU
 70
     2
  9
$DIMALTTD
 70
     2
  9
$DIMTXSTY
  7
Standard
  9
$DIMAUNIT
 70
     0
  9
$DIMADEC
 70
     0
  9
$DIMALTRND
 40
0.0
  9
$DIMAZIN
 70
     0
  9
$DIMDSEP
 70
    46
  9
$DIMATFIT
 70
     3
  9
$DIMFRAC
 70
     0
  9
$DIMLDRBLK
  1

  9
$DIMLUNIT
 70
     2
  9
$DIMLWD
 70
    -2
  9
$DIMLWE
 70
    -2
  9
$DIMTMOVE
 70
     0
  9
$DIMFXL
 40
1.0
  9
$DIMFXLON
 70
     0
  9
$DIMJOGANG
 40
0.7853981633974483
  9
$DIMTFILL
 70
     0
  9
$DIMTFILLCLR
 70
     0
  9
$DIMARCSYM
 70
     0
  9
$DIMLTYPE
  6

  9
$DIMLTEX1
  6

  9
$DIMLTEX2
  6

  9
$DIMTXTDIRECTION
 70
     0
  9
$LUNITS
 70
     2
  9
$LUPREC
 70
     4
  9
$SKETCHINC
 40
0.1
  9
$FILLETRAD
 40
0.0
  9
$AUNITS
 70
     0
  9
$AUPREC
 70
     0
  9
$MENU
  1
.
  9
$ELEVATION
 40
0.0
  9
$PELEVATION
 40
0.0
  9
$THICKNESS
 40
0.0
  9
$LIMCHECK
 70
     0
  9
$CHAMFERA
 40
0.0
  9
$CHAMFERB
 40
0.0
  9
$CHAMFERC
 40
0.0
  9
$CHAMFERD
 40
0.0
  9
$SKPOLY
 70
     0
  9
$TDCREATE
 40
2460567.434814815
  9
$TDUCREATE
 40
2460567.351481482
  9
$TDUPDATE
 40
2460567.434814815
  9
$TDUUPDATE
 40
2460567.351481482
  9
$TDINDWG
 40
0.0000000000
  9
$TDUSRTIMER
 40
0.0000000000
  9
$USRTIMER
 70
     1
  9
$ANGBASE
 50
0.0
  9
$ANGDIR
 70
     0
  9
$PDMODE
 70
     0
  9
$PDSIZE
 40
0.0
  9
$PLINEWID
 40
0.0
  9
$SPLFRAME
 70
     0
  9
$SPLINETYPE
 70
     6
  9
$SPLINESEGS
 70
     8
  9
$HANDSEED
  5
183
  9
$SURFTAB1
 70
     6
  9
$SURFTAB2
 70
     6
  9
$SURFTYPE
 70
     6
  9
$SURFU
 70
     6
  9
$SURFV
 70
     6
  9
$UCSBASE
  2

  9
$UCSNAME
  2

  9
$UCSORG
 10
0.0
 20
0.0
 30
0.0
  9
$UCSXDIR
 10
1.0
 20
0.0
 30
0.0
  9
$UCSYDIR
 10
0.0
 20
1.0
 30
0.0
  9
$UCSORTHOREF
  2

  9
$UCSORTHOVIEW
 70
     0
  9
$UCSORGTOP
 10
0.0
 20
0.0
 30
0.0
  9
$UCSORGBOTTOM
 10
0.0
 20
0.0
 30
0.0
  9
$UCSORGLEFT
 10
0.0
 20
0.0
 30
0.0
  9
$UCSORGRIGHT
 10
0.0
 20
0.0
 30
0.0
  9
$UCSORGFRONT
 10
0.0
 20
0.0
 30
0.0
  9
$UCSORGBACK
 10
0.0
 20
0.0
 30
0.0
  9
$PUCSBASE
  2

  9
$PUCSNAME
  2

  9
$PUCSORG
 10
0.0
 20
0.0
 30
0.0
  9
$PUCSXDIR
 10
1.0
 20
0.0
 30
0.0
  9
$PUCSYDIR
 10
0.0
 20
1.0
 30
0.0
  9
$PUCSORTHOREF
  2

  9
$PUCSORTHOVIEW
 70
     0
  9
$PUCSORGTOP
 10
0.0
 20
0.0
 30
0.0
  9
$PUCSORGBOTTOM
 10
0.0
 20
0.0
 30
0.0
  9
$PUCSORGLEFT
 10
0.0
 20
0.0
 30
0.0
  9
$PUCSORGRIGHT
 10
0.0
 20
0.0
 30
0.0
  9
$PUCSORGFRONT
 10
0.0
 20
0.0
 30
0.0
  9
$PUCSORGBACK
 10
0.0
 20
0.0
 30
0.0
  9
$USERI1
 70
     0
  9
$USERI2
 70
     0
  9
$USERI3
 70
     0
  9
$USERI4
 70
     0
  9
$USERI5
 70
     0
  9
$USERR1
 40
0.0
  9
$USERR2
 40
0.0
  9
$USERR3
 40
0.0
  9
$USERR4
 40
0.0
  9
$USERR5
 40
0.0
  9
$WORLDVIEW
 70
     1
  9
$SHADEDGE
 70
     3
  9
$SHADEDIF
 70
    70
  9
$TILEMODE
 70
     1
  9
$MAXACTVP
 70
    64
  9
$PINSBASE
 10
0.0
 20
0.0
 30
0.0
  9
$PLIMCHECK
 70
     0
  9
$PEXTMIN
 10
1.000000000000000E+20
 20
1.000000000000000E+20
 30
1.000000000000000E+20
  9
$PEXTMAX
 10
-1.000000000000000E+20
 20
-1.000000000000000E+20
 30
-1.000000000000000E+20
  9
$PLIMMIN
 10
0.0
 20
0.0
  9
$PLIMMAX
 10
12.0
 20
9.0
  9
$UNITMODE
 70
     0
  9
$VISRETAIN
 70
     1
  9
$PLINEGEN
 70
     0
  9
$PSLTSCALE
 70
     1
  9
$TREEDEPTH
 70
  3020
  9
$CMLSTYLE
  2
Standard
  9
$CMLJUST
 70
     0
  9
$CMLSCALE
 40
1.0
  9
$PROXYGRAPHICS
 70
     1
  9
$MEASUREMENT
 70
     0
  9
$CELWEIGHT
370
    -1
  9
$ENDCAPS
280
     0
  9
$JOINSTYLE
280
     0
  9
$LWDISPLAY
290
     0
  9
$INSUNITS
 70
     0
  9
$HYPERLINKBASE
  1

  9
$STYLESHEET
  1

  9
$XEDIT
290
     1
  9
$CEPSNTYPE
380
     0
  9
$PSTYLEMODE
290
     1
  9
$FINGERPRINTGUID
  2
{3D2F70CA-63C4-1A4A-9274-6E2458433417}
  9
$VERSIONGUID
  2
{776127B5-F669-2E4B-989F-AB564144C0E1}
  9
$EXTNAMES
290
     1
  9
$PSVPSCALE
 40
0.0
  9
$OLESTARTUP
290
     0
  9
$SORTENTS
280
   127
  9
$INDEXCTL
280
     0
  9
$HIDETEXT
280
     1
  9
$XCLIPFRAME
280
     2
  9
$HALOGAP
280
     0
  9
$OBSCOLOR
 70
   257
  9
$OBSLTYPE
280
     0
  9
$INTERSECTIONDISPLAY
280
     0
  9
$INTERSECTIONCOLOR
 70
   257
  9
$DIMASSOC
280
     2
  9
$PROJECTNAME
  1

  9
$CAMERADISPLAY
290
     0
  9
$LENSLENGTH
 40
50.0
  9
$CAMERAHEIGHT
 40
0.0
  9
$STEPSPERSEC
 40
2.0
  9
$STEPSIZE
 40
6.0
  9
$3DDWFPREC
 40
2.0
  9
$PSOLWIDTH
 40
0.25
  9
$PSOLHEIGHT
 40
4.0
  9
$LOFTANG1
 40
1.570796326794896
  9
$LOFTANG2
 40
1.570796326794896
  9
$LOFTMAG1
 40
0.0
  9
$LOFTMAG2
 40
0.0
  9
$LOFTPARAM
 70
     7
  9
$LOFTNORMALS
280
     1
  9
$LATITUDE
 40
37.795
  9
$LONGITUDE
 40
-122.394
  9
$NORTHDIRECTION
 40
0.0
  9
$TIMEZONE
 70
 -8000
  9
$LIGHTGLYPHDISPLAY
280
     1
  9
$TILEMODELIGHTSYNCH
280
     1
  9
$CMATERIAL
347
11
  9
$SOLIDHIST
280
     0
  9
$SHOWHIST
280
     1
  9
$DWFFRAME
280
     2
  9
$DGNFRAME
280
     0
  9
$REALWORLDSCALE
290
     1
  9
$INTERFERECOLOR
 62
     1
  9
$INTERFEREOBJVS
345
33
  9
$INTERFEREVPVS
346
30
  9
$CSHADOW
280
     0
  9
$SHADOWPLANELOCATION
 40
0.0
  0
ENDSEC
  0
SECTION
  2
CLASSES
  0
CLASS
  1
ACDBDICTIONARYWDFLT
  2
AcDbDictionaryWithDefault
  3
ObjectDBX Classes
 90
        0
 91
        1
280
     0
281
     0
  0
CLASS
  1
MATERIAL
  2
AcDbMaterial
  3
ObjectDBX Classes
 90
     1153
 91
        3
280
     0
281
     0
  0
CLASS
  1
VISUALSTYLE
  2
AcDbVisualStyle
  3
ObjectDBX Classes
 90
     4095
 91
       24
280
     0
281
     0
  0
CLASS
  1
SCALE
  2
AcDbScale
  3
ObjectDBX Classes
 90
     1153
 91
       17
280
     0
281
     0
  0
CLASS
  1
TABLESTYLE
  2
AcDbTableStyle
  3
ObjectDBX Classes
 90
     4095
 91
        1
280
     0
281
     0
  0
CLASS
  1
MLEADERSTYLE
  2
AcDbMLeaderStyle
  3
ACDB_MLEADERSTYLE_CLASS
 90
     4095
 91
        1
280
     0
281
     0
  0
CLASS
  1
ACDBSECTIONVIEWSTYLE
  2
AcDbSectionViewStyle
  3
ObjectDBX Classes
 90
     1025
 91
        1
280
     0
281
     0
  0
CLASS
  1
ACDBDETAILVIEWSTYLE
  2
AcDbDetailViewStyle
  3
ObjectDBX Classes
 90
     1025
 91
        1
280
     0
281
     0
  0
CLASS
  1
IRD_DSC_DICT
  2
CIrdDscDict
  3
"IRD"
 90
     1025
 91
        1
280
     0
281
     0
  0
CLASS
  1
IRD_DSC_RECORD
  2
CIrdDscRecord
  3
"IRD"
 90
     1025
 91
        5
280
     0
281
     0
  0
CLASS
  1
IRD_OBJ_RECORD
  2
CIrdObjRecord
  3
"IRD"
 90
     1025
 91
       81
280
     0
281
     0
  0
CLASS
  1
DICTIONARYVAR
  2
AcDbDictionaryVar
  3
ObjectDBX Classes
 90
        0
 91
        5
280
     0
281
     0
  0
CLASS
  1
CELLSTYLEMAP
  2
AcDbCellStyleMap
  3
ObjectDBX Classes
 90
     1152
 91
        1
280
     0
281
     0
  0
ENDSEC
  0
SECTION
  2
TABLES
  0
TABLE
  2
VPORT
  5
8
330
0
100
AcDbSymbolTable
 70
     1
1001
ACAD
1000
DbSaveVer
1071
      298
  0
VPORT
  5
57
330
8
100
AcDbSymbolTableRecord
100
AcDbViewportTableRecord
  2
*Active
 70
     0
 10
0.0
 20
0.0
 11
1.0
 21
1.0
 12
2586831.929480826
 22
1221393.413325822
 13
0.0
 23
0.0
 14
1.0
 24
1.0
 15
0.0
 25
0.0
 16
0.0
 26
0.0
 36
1.0
 17
0.0
 27
0.0
 37
0.0
 40
4424.694941378664
 41
1.198224293050651
 42
50.0
 43
0.0
 44
0.0
 50
0.0
 51
0.0
 71
     0
 72
  1000
 73
     1
 74
     1
 75
     0
 76
     0
 77
     0
 78
     0
281
     0
 65
     1
110
0.0
120
0.0
130
0.0
111
1.0
121
0.0
131
0.0
112
0.0
122
1.0
132
0.0
 79
     0
146
0.0
 60
     3
 61
     5
292
     1
282
     1
141
0.0
142
0.0
 63
   250
421
  3355443
  0
ENDTAB
  0
TABLE
  2
LTYPE
  5
5
330
0
100
AcDbSymbolTable
 70
     1
  0
LTYPE
  5
5B
330
5
100
AcDbSymbolTableRecord
100
AcDbLinetypeTableRecord
  2
ByBlock
 70
     0
  3

 72
    65
 73
     0
 40
0.0
  0
LTYPE
  5
5C
330
5
100
AcDbSymbolTableRecord
100
AcDbLinetypeTableRecord
  2
ByLayer
 70
     0
  3

 72
    65
 73
     0
 40
0.0
  0
LTYPE
  5
5D
330
5
100
AcDbSymbolTableRecord
100
AcDbLinetypeTableRecord
  2
Continuous
 70
     0
  3
Solid line
 72
    65
 73
     0
 40
0.0
  0
ENDTAB
  0
TABLE
  2
LAYER
  5
2
330
0
100
AcDbSymbolTable
 70
     2
  0
LAYER
  5
54
330
2
100
AcDbSymbolTableRecord
100
AcDbLayerTableRecord
  2
0
 70
     0
 62
     7
  6
Continuous
370
    -3
390
F
347
21
348
0
  0
LAYER
  5
80
330
2
100
AcDbSymbolTableRecord
100
AcDbLayerTableRecord
  2
e311_bruecken
 70
     0
 62
    10
  6
Continuous
370
    25
390
F
347
21
348
0
1001
AcCmTransparency
1071
 33554687
1001
AcAecLayerStandard
1000

1000

  0
ENDTAB
  0
TABLE
  2
STYLE
  5
3
330
0
100
AcDbSymbolTable
 70
     2
  0
STYLE
  5
55
330
3
100
AcDbSymbolTableRecord
100
AcDbTextStyleTableRecord
  2
Standard
 70
     0
 40
0.0
 41
1.0
 50
0.0
 71
     0
 42
0.2
  3
txt
  4

  0
STYLE
  5
5A
330
3
100
AcDbSymbolTableRecord
100
AcDbTextStyleTableRecord
  2
Annotative
 70
     0
 40
0.0
 41
1.0
 50
0.0
 71
     0
 42
0.2
  3
txt
  4

1001
AcadAnnotative
1000
AnnotativeData
1002
{
1070
     1
1070
     1
1002
}
  0
ENDTAB
  0
TABLE
  2
VIEW
  5
6
330
0
100
AcDbSymbolTable
 70
     0
  0
ENDTAB
  0
TABLE
  2
UCS
  5
7
330
0
100
AcDbSymbolTable
 70
     0
  0
ENDTAB
  0
TABLE
  2
APPID
  5
9
330
0
100
AcDbSymbolTable
 70
     6
  0
APPID
  5
56
330
9
100
AcDbSymbolTableRecord
100
AcDbRegAppTableRecord
  2
ACAD
 70
     0
  0
APPID
  5
5E
330
9
100
AcDbSymbolTableRecord
100
AcDbRegAppTableRecord
  2
AcadAnnotative
 70
     0
  0
APPID
  5
78
330
9
100
AcDbSymbolTableRecord
100
AcDbRegAppTableRecord
  2
REALDWG
 70
     0
  0
APPID
  5
79
330
9
100
AcDbSymbolTableRecord
100
AcDbRegAppTableRecord
  2
IRD
 70
     0
  0
APPID
  5
81
330
9
100
AcDbSymbolTableRecord
100
AcDbRegAppTableRecord
  2
AcCmTransparency
 70
     0
  0
APPID
  5
82
330
9
100
AcDbSymbolTableRecord
100
AcDbRegAppTableRecord
  2
AcAecLayerStandard
 70
     0
  0
ENDTAB
  0
TABLE
  2
DIMSTYLE
  5
A
330
0
100
AcDbSymbolTable
 70
     2
100
AcDbDimStyleTable
 71
     0
  0
DIMSTYLE
105
58
330
A
100
AcDbSymbolTableRecord
100
AcDbDimStyleTableRecord
  2
Standard
 70
     0
340
55
  0
DIMSTYLE
105
59
330
A
100
AcDbSymbolTableRecord
100
AcDbDimStyleTableRecord
  2
Annotative
 70
     0
340
55
1001
AcadAnnotative
1000
AnnotativeData
1002
{
1070
     1
1070
     1
1002
}
  0
ENDTAB
  0
TABLE
  2
BLOCK_RECORD
  5
1
330
0
100
AcDbSymbolTable
 70
     1
  0
BLOCK_RECORD
  5
70
330
1
100
AcDbSymbolTableRecord
100
AcDbBlockTableRecord
  2
*Model_Space
340
73
 70
     0
280
     1
281
     0
  0
BLOCK_RECORD
  5
6C
330
1
100
AcDbSymbolTableRecord
100
AcDbBlockTableRecord
  2
*Paper_Space
340
6F
 70
     0
280
     1
281
     0
  0
BLOCK_RECORD
  5
74
330
1
100
AcDbSymbolTableRecord
100
AcDbBlockTableRecord
  2
*Paper_Space0
340
77
 70
     0
280
     1
281
     0
  0
ENDTAB
  0
ENDSEC
  0
SECTION
  2
BLOCKS
  0
BLOCK
  5
71
330
70
100
AcDbEntity
  8
0
100
AcDbBlockBegin
  2
*Model_Space
 70
     0
 10
0.0
 20
0.0
 30
0.0
  3
*Model_Space
  1

  0
ENDBLK
  5
72
330
70
100
AcDbEntity
  8
0
100
AcDbBlockEnd
  0
BLOCK
  5
6D
330
6C
100
AcDbEntity
 67
     1
  8
0
100
AcDbBlockBegin
  2
*Paper_Space
 70
     0
 10
0.0
 20
0.0
 30
0.0
  3
*Paper_Space
  1

  0
ENDBLK
  5
6E
330
6C
100
AcDbEntity
 67
     1
  8
0
100
AcDbBlockEnd
  0
BLOCK
  5
75
330
74
100
AcDbEntity
 67
     1
  8
0
100
AcDbBlockBegin
  2
*Paper_Space0
 70
     0
 10
0.0
 20
0.0
 30
0.0
  3
*Paper_Space0
  1

  0
ENDBLK
  5
76
330
74
100
AcDbEntity
 67
     1
  8
0
100
AcDbBlockEnd
  0
ENDSEC
  0
SECTION
  2
ENTITIES
  0
LWPOLYLINE
  5
83
102
{ACAD_XDICTIONARY
360
84
102
}
330
70
100
AcDbEntity
  8
e311_bruecken
100
AcDbPolyline
 90
       28
 70
     1
 43
0.0
 10
2586382.117997316
 20
1219645.495827854
 10
2586389.717997318
 20
1219639.661828203
 10
2586388.244997318
 20
1219642.247828049
 10
2586404.469997321
 20
1219643.141827993
 10
2586405.940997322
 20
1219640.572828144
 10
2586407.237997322
 20
1219640.640828139
 10
2586410.375997322
 20
1219645.480827852
 10
2586410.705997321
 20
1219645.25582787
 10
2586408.274997323
 20
1219640.694828136
 10
2586408.311997323
 20
1219639.993828181
 10
2586406.843997322
 20
1219639.916828182
 10
2586410.607997324
 20
1219633.344828564
 10
2586412.241997325
 20
1219632.979828587
 10
2586412.249997325
 20
1219632.8268286
 10
2586420.132997326
 20
1219626.807828946
 10
2586419.828997326
 20
1219626.410828975
 10
2586410.633997323
 20
1219632.377828627
 10
2586394.279997321
 20
1219631.656828669
 10
2586393.951997321
 20
1219631.640828672
 10
2586381.86999732
 20
1219621.854829246
 10
2586381.56999732
 20
1219622.225829221
 10
2586392.08099732
 20
1219631.55882867
 10
2586392.05899732
 20
1219632.002828645
 10
2586393.435997321
 20
1219632.068828644
 10
2586389.427997318
 20
1219639.103828231
 10
2586388.114997319
 20
1219639.023828239
 10
2586388.071997319
 20
1219639.6398282
 10
2586381.812997317
 20
1219645.09882788
  0
LWPOLYLINE
  5
86
102
{ACAD_XDICTIONARY
360
87
102
}
330
70
100
AcDbEntity
  8
e311_bruecken
100
AcDbPolyline
 90
       12
 70
     1
 43
0.0
 10
2586247.721997214
 20
1220209.905794803
 10
2586247.728667603
 20
1220210.205932338
 10
2586249.035997213
 20
1220210.185794787
 10
2586310.863997226
 20
1220209.448794825
 10
2586311.958425461
 20
1220209.442849855
 10
2586311.960997227
 20
1220209.136794841
 10
2586311.853997228
 20
1220196.619795575
 10
2586311.848617073
 20
1220196.320748113
 10
2586310.751997227
 20
1220196.340795595
 10
2586248.796997215
 20
1220197.04479556
 10
2586247.546654479
 20
1220197.057379357
 10
2586247.548997214
 20
1220197.354795542
  0
LWPOLYLINE
  5
89
102
{ACAD_XDICTIONARY
360
8A
102
}
330
70
100
AcDbEntity
  8
e311_bruecken
100
AcDbPolyline
 90
       28
 70
     1
 43
0.0
 10
2586311.401997199
 20
1220406.96178326
 10
2586313.469577607
 20
1220408.469685776
 10
2586314.038997199
 20
1220408.893783148
 10
2586317.269997199
 20
1220417.040782666
 10
2586317.7409972
 20
1220416.853782678
 10
2586314.900997201
 20
1220407.717783213
 10
2586315.417997201
 20
1220407.009783258
 10
2586315.255997201
 20
1220406.890783265
 10
2586339.07199721
 20
1220374.371785159
 10
2586339.23499721
 20
1220374.490785156
 10
2586339.928997209
 20
1220373.543785209
 10
2586343.551997211
 20
1220375.27778511
 10
2586343.810997211
 20
1220374.960785129
 10
2586340.731997209
 20
1220372.446785276
 10
2586340.66699721
 20
1220372.525785271
 10
2586340.18999721
 20
1220372.171785287
 10
2586338.15799721
 20
1220370.68278538
 10
2586337.67399721
 20
1220370.327785397
 10
2586334.26499721
 20
1220363.775785776
 10
2586333.87799721
 20
1220363.976785773
 10
2586336.519997209
 20
1220371.903785303
 10
2586336.234997209
 20
1220372.292785288
 10
2586336.407997209
 20
1220372.420785271
 10
2586312.5909972
 20
1220404.938783374
 10
2586312.4169972
 20
1220404.811783379
 10
2586311.7349972
 20
1220405.745783331
 10
2586308.7019972
 20
1220404.259783418
 10
2586308.356997199
 20
1220404.730783384
  0
LWPOLYLINE
  5
8C
102
{ACAD_XDICTIONARY
360
8D
102
}
330
70
100
AcDbEntity
  8
e311_bruecken
100
AcDbPolyline
 90
       35
 70
     1
 43
0.0
 10
2586353.228997186
 20
1220566.926773885
 10
2586353.724997187
 20
1220566.919773887
 10
2586354.288997188
 20
1220562.50777415
 10
2586355.652997188
 20
1220562.410774155
 10
2586355.634997187
 20
1220562.158774167
 10
2586386.547997194
 20
1220559.963774291
 10
2586386.564997194
 20
1220560.216774277
 10
2586387.678997194
 20
1220560.136774284
 10
2586389.869997194
 20
1220568.647773786
 10
2586390.347997194
 20
1220568.588773787
 10
2586389.290997195
 20
1220560.022774286
 10
2586389.473997195
 20
1220560.009774289
 10
2586389.435997195
 20
1220559.441774324
 10
2586388.771997196
 20
1220551.287774802
 10
2586388.713997196
 20
1220550.469774848
 10
2586388.574997196
 20
1220550.47977485
 10
2586387.193997197
 20
1220545.450775146
 10
2586386.724997196
 20
1220545.578775133
 10
2586387.300997196
 20
1220550.571774839
 10
2586385.888997195
 20
1220550.671774832
 10
2586385.909997195
 20
1220550.972774822
 10
2586359.258389081
 20
1220552.838970224
 10
2586355.228078044
 20
1220553.140085403
 10
2586354.975997188
 20
1220552.865774717
 10
2586353.761997188
 20
1220552.951774709
 10
2586352.305997189
 20
1220543.93177523
 10
2586351.75899719
 20
1220543.970775236
 10
2586352.402997188
 20
1220553.047774701
 10
2586352.275997189
 20
1220553.056774703
 10
2586352.333997188
 20
1220553.874774653
 10
2586355.033997189
 20
1220553.682774665
 10
2586355.594997188
 20
1220561.592774201
 10
2586352.894997187
 20
1220561.784774192
 10
2586352.952997188
 20
1220562.602774144
 10
2586353.162997188
 20
1220562.587774147
  0
LWPOLYLINE
  5
8F
102
{ACAD_XDICTIONARY
360
90
102
}
330
70
100
AcDbEntity
  8
e311_bruecken
100
AcDbPolyline
 90
        8
 70
     1
 43
0.0
 10
2585402.016973702
 20
1219937.568986785
 10
2585402.732761721
 20
1219938.577597118
 10
2585404.749982501
 20
1219940.790032679
 10
2585409.858106088
 20
1219946.25604995
 10
2585412.201997082
 20
1219948.698810224
 10
2585412.706997082
 20
1219944.850810449
 10
2585410.508822469
 20
1219942.221608629
 10
2585402.678997082
 20
1219932.990811148
  0
LWPOLYLINE
  5
92
102
{ACAD_XDICTIONARY
360
93
102
}
330
70
100
AcDbEntity
  8
e311_bruecken
100
AcDbPolyline
 90
        9
 70
     1
 43
0.0
 10
2585673.359997114
 20
1220090.1158019
 10
2585676.089997114
 20
1220090.894801858
 10
2585683.678997114
 20
1220096.466801527
 10
2585686.532997117
 20
1220092.50980176
 10
2585695.497997118
 20
1220098.05880143
 10
2585689.149643613
 20
1220093.118661411
 10
2585687.269997117
 20
1220091.654801809
 10
2585679.530997116
 20
1220086.002802146
 10
2585676.959997115
 20
1220085.29380218
  0
LWPOLYLINE
  5
95
102
{ACAD_XDICTIONARY
360
96
102
}
330
70
100
AcDbEntity
  8
e311_bruecken
100
AcDbPolyline
 90
        9
 70
     1
 43
0.0
 10
2585737.696997107
 20
1220227.291793855
 10
2585739.455103545
 20
1220229.524057954
 10
2585739.637997107
 20
1220229.771793712
 10
2585746.217997107
 20
1220241.600793023
 10
2585749.70388654
 20
1220236.99102798
 10
2585749.086997109
 20
1220236.051793343
 10
2585747.873746719
 20
1220234.026201645
 10
2585743.336997109
 20
1220225.471793967
 10
2585741.106997109
 20
1220222.381794141
  0
LWPOLYLINE
  5
98
102
{ACAD_XDICTIONARY
360
99
102
}
330
70
100
AcDbEntity
  8
e311_bruecken
100
AcDbPolyline
 90
        4
 70
     1
 43
0.0
 10
2585911.340997099
 20
1220540.238775505
 10
2585915.7819971
 20
1220543.285775339
 10
2585922.148997103
 20
1220533.027775932
 10
2585917.672997102
 20
1220529.953776109
  0
LWPOLYLINE
  5
9B
102
{ACAD_XDICTIONARY
360
9C
102
}
330
70
100
AcDbEntity
  8
e311_bruecken
100
AcDbPolyline
 90
       17
 70
     1
 43
0.0
 10
2585884.360997073
 20
1220686.540766953
 10
2585889.956997075
 20
1220685.806766997
 10
2585890.874997075
 20
1220685.697767001
 10
2585890.843997075
 20
1220685.419767013
 10
2585890.252997075
 20
1220685.496767017
 10
2585890.096997075
 20
1220683.254767145
 10
2585887.870997075
 20
1220675.137767622
 10
2585887.869997078
 20
1220655.109768794
 10
2585888.386997079
 20
1220655.137768788
 10
2585888.399997078
 20
1220654.875768807
 10
2585887.884997078
 20
1220654.847768811
 10
2585882.588997078
 20
1220654.55776883
 10
2585882.622997078
 20
1220654.166768849
 10
2585882.013997078
 20
1220654.116768849
 10
2585881.979997077
 20
1220654.667768819
 10
2585882.548997077
 20
1220655.018768797
 10
2585882.470997074
 20
1220675.783767583
  0
LWPOLYLINE
  5
9E
102
{ACAD_XDICTIONARY
360
9F
102
}
330
70
100
AcDbEntity
  8
e311_bruecken
100
AcDbPolyline
 90
       15
 70
     1
 43
0.0
 10
2585941.738997054
 20
1220916.232753511
 10
2585949.193997056
 20
1220914.963753585
 10
2585951.020997056
 20
1220914.638753602
 10
2585943.108997057
 20
1220899.387754498
 10
2585941.797997055
 20
1220899.755754476
 10
2585940.906997056
 20
1220897.594754604
 10
2585939.725997055
 20
1220897.694754593
 10
2585939.635997056
 20
1220898.270754557
 10
2585941.155997055
 20
1220899.935754462
 10
2585934.675997053
 20
1220901.735754353
 10
2585934.499997055
 20
1220900.079754455
 10
2585933.041997054
 20
1220899.678754475
 10
2585933.771997054
 20
1220901.591754369
 10
2585933.510997053
 20
1220902.01375434
 10
2585933.298997054
 20
1220902.142754335
  0
LWPOLYLINE
  5
A1
102
{ACAD_XDICTIONARY
360
A2
102
}
330
70
100
AcDbEntity
  8
e311_bruecken
100
AcDbPolyline
 90
       14
 70
     1
 43
0.0
 10
2586179.685997084
 20
1221057.151745234
 10
2586179.877997084
 20
1221056.575745266
 10
2586182.627997086
 20
1221048.310745755
 10
2586182.438997086
 20
1221048.246745761
 10
2586182.123997085
 20
1221049.190745696
 10
2586180.49643185
 20
1221047.719196851
 10
2586179.662997086
 20
1221045.99774589
 10
2586179.471997085
 20
1221046.057745881
 10
2586180.040997085
 20
1221047.866745777
 10
2586177.229997083
 20
1221056.050745301
 10
2586177.418997084
 20
1221056.115745295
 10
2586177.907997084
 20
1221054.693745381
 10
2586179.717997084
 20
1221056.422745282
 10
2586179.496997084
 20
1221057.08874524
  0
LWPOLYLINE
  5
A4
102
{ACAD_XDICTIONARY
360
A5
102
}
330
70
100
AcDbEntity
  8
e311_bruecken
100
AcDbPolyline
 90
       12
 70
     1
 43
0.0
 10
2586181.939997083
 20
1221062.408744928
 10
2586187.310997084
 20
1221064.813744787
 10
2586187.871217496
 20
1221065.180085378
 10
2586187.756997085
 20
1221064.791744787
 10
2586188.061997085
 20
1221060.34274505
 10
2586187.628997085
 20
1221060.174745051
 10
2586179.877997084
 20
1221056.575745266
 10
2586179.702997084
 20
1221057.100745237
 10
2586180.316997084
 20
1221057.814745196
 10
2586180.686997084
 20
1221058.863745132
 10
2586180.329997083
 20
1221061.86074496
 10
2586181.710997083
 20
1221062.604744911
  0
LWPOLYLINE
  5
A7
102
{ACAD_XDICTIONARY
360
A8
102
}
330
70
100
AcDbEntity
  8
e311_bruecken
100
AcDbPolyline
 90
       16
 70
     1
 43
0.0
 10
2586181.057997082
 20
1221072.899744313
 10
2586183.383997083
 20
1221073.812744257
 10
2586183.963997082
 20
1221074.039744244
 10
2586189.246997083
 20
1221076.457744103
 10
2586191.367997083
 20
1221077.401744048
 10
2586191.510997084
 20
1221077.082744068
 10
2586190.354997083
 20
1221076.568744101
 10
2586189.823366638
 20
1221073.639397825
 10
2586191.379997084
 20
1221073.975744254
 10
2586191.527997084
 20
1221073.658744268
 10
2586183.280997083
 20
1221069.886744493
 10
2586180.727997082
 20
1221068.719744559
 10
2586180.581997082
 20
1221069.038744539
 10
2586182.378997083
 20
1221069.859744492
 10
2586182.938997082
 20
1221073.26174429
 10
2586181.185997082
 20
1221072.573744331
  0
LWPOLYLINE
  5
AA
102
{ACAD_XDICTIONARY
360
AB
102
}
330
70
100
AcDbEntity
  8
e311_bruecken
100
AcDbPolyline
 90
        4
 70
     1
 43
0.0
 10
2584664.077996932
 20
1219950.352810239
 10
2584662.866996934
 20
1219944.418810587
 10
2584660.349996933
 20
1219945.129810539
 10
2584661.637996931
 20
1219951.193810191
  0
LWPOLYLINE
  5
AD
102
{ACAD_XDICTIONARY
360
AE
102
}
330
70
100
AcDbEntity
  8
e311_bruecken
100
AcDbPolyline
 90
       15
 70
     1
 43
0.0
 10
2584539.066996871
 20
1220180.648796763
 10
2584543.599996873
 20
1220183.002796624
 10
2584543.821996873
 20
1220182.592796654
 10
2584543.877996873
 20
1220182.622796644
 10
2584544.510996873
 20
1220181.462796721
 10
2584550.465996875
 20
1220170.54979736
 10
2584550.633996877
 20
1220170.185797377
 10
2584550.774996877
 20
1220169.920797395
 10
2584550.597996877
 20
1220169.826797399
 10
2584546.031996875
 20
1220167.396797538
 10
2584545.890996876
 20
1220167.660797524
 10
2584545.689996875
 20
1220168.006797503
 10
2584539.769996872
 20
1220178.94779686
 10
2584539.145996873
 20
1220180.100796797
 10
2584538.898996872
 20
1220180.557796766
  0
LWPOLYLINE
  5
B0
102
{ACAD_XDICTIONARY
360
B1
102
}
330
70
100
AcDbEntity
  8
e311_bruecken
100
AcDbPolyline
 90
        4
 70
     1
 43
0.0
 10
2584310.849996799
 20
1220361.652786204
 10
2584312.236996798
 20
1220363.465786093
 10
2584325.039996802
 20
1220353.781786658
 10
2584323.734996802
 20
1220351.968786767
  0
LWPOLYLINE
  5
B3
102
{ACAD_XDICTIONARY
360
B4
102
}
330
70
100
AcDbEntity
  8
e311_bruecken
100
AcDbPolyline
 90
       13
 70
     1
 43
0.0
 10
2584754.046995171
 20
1220294.355966679
 10
2584754.175996899
 20
1220294.751790051
 10
2584755.024996899
 20
1220293.385790127
 10
2584761.604996901
 20
1220282.79079075
 10
2584763.035996902
 20
1220282.073790791
 10
2584759.717996902
 20
1220282.582790764
 10
2584754.157996901
 20
1220279.129790964
 10
2584753.668996901
 20
1220276.507791116
 10
2584752.567996901
 20
1220278.297791019
 10
2584746.555996897
 20
1220288.073790443
 10
2584746.086996898
 20
1220288.835790398
 10
2584747.940996898
 20
1220289.052790385
 10
2584753.515996899
 20
1220292.511790179
  0
LWPOLYLINE
  5
B6
102
{ACAD_XDICTIONARY
360
B7
102
}
330
70
100
AcDbEntity
  8
e311_bruecken
100
AcDbPolyline
 90
       10
 70
     1
 43
0.0
 10
2584741.905996897
 20
1220286.825790519
 10
2584742.897996898
 20
1220285.770790578
 10
2584750.722182588
 20
1220277.869010396
 10
2584752.3259969
 20
1220275.747791163
 10
2584743.1799969
 20
1220270.575791466
 10
2584741.429996899
 20
1220272.468791353
 10
2584733.578996896
 20
1220280.861790873
 10
2584732.583996896
 20
1220281.923790807
 10
2584734.995996896
 20
1220283.192790729
 10
2584741.399996897
 20
1220286.559790537
  0
LWPOLYLINE
  5
B9
102
{ACAD_XDICTIONARY
360
BA
102
}
330
70
100
AcDbEntity
  8
e311_bruecken
100
AcDbPolyline
 90
       14
 70
     1
 43
0.0
 10
2584867.866998456
 20
1220358.482393152
 10
2584867.147998456
 20
1220358.909393138
 10
2584869.951729159
 20
1220360.376035404
 10
2584871.276998456
 20
1220361.072393078
 10
2584871.760998456
 20
1220360.782393086
 10
2584881.958998458
 20
1220354.687393257
 10
2584882.665998458
 20
1220354.264393271
 10
2584880.605536099
 20
1220353.153695807
 10
2584878.635998458
 20
1220352.078393341
 10
2584878.082998458
 20
1220352.40739333
 10
2584875.667988626
 20
1220353.812605938
 10
2584873.842436701
 20
1220354.936461306
 10
2584872.176620569
 20
1220355.900580893
 10
2584871.16686216
 20
1220356.516704648
  0
LWPOLYLINE
  5
BC
102
{ACAD_XDICTIONARY
360
BD
102
}
330
70
100
AcDbEntity
  8
e311_bruecken
100
AcDbPolyline
 90
        8
 70
     1
 43
0.0
 10
2584958.248996922
 20
1220412.404783129
 10
2584958.617996922
 20
1220412.067783149
 10
2584967.642996926
 20
1220404.89578357
 10
2584968.157996926
 20
1220404.633783583
 10
2584955.203996924
 20
1220396.895784039
 10
2584954.676996924
 20
1220397.307784016
 10
2584945.691996921
 20
1220404.477783597
 10
2584945.408996921
 20
1220404.935783571
  0
LWPOLYLINE
  5
BF
102
{ACAD_XDICTIONARY
360
C0
102
}
330
70
100
AcDbEntity
  8
e311_bruecken
100
AcDbPolyline
 90
        9
 70
     1
 43
0.0
 10
2585147.171996944
 20
1220523.5107766
 10
2585146.957314832
 20
1220523.917134517
 10
2585147.473996944
 20
1220524.267776555
 10
2585177.444996948
 20
1220542.012775512
 10
2585177.703996948
 20
1220541.570775537
 10
2585183.817996951
 20
1220531.670776118
 10
2585184.156996951
 20
1220531.09477615
 10
2585153.29633641
 20
1220513.170420064
 10
2585153.049996947
 20
1220513.600777173
  0
LWPOLYLINE
  5
C2
102
{ACAD_XDICTIONARY
360
C3
102
}
330
70
100
AcDbEntity
  8
e311_bruecken
100
AcDbPolyline
 90
       10
 70
     1
 43
0.0
 10
2585304.875996964
 20
1220617.120771101
 10
2585305.120996963
 20
1220616.709771119
 10
2585305.086996963
 20
1220616.689771122
 10
2585311.298996966
 20
1220606.672771708
 10
2585311.378996966
 20
1220606.719771704
 10
2585311.699996967
 20
1220606.17377174
 10
2585298.582996965
 20
1220598.453772189
 10
2585298.259996965
 20
1220598.974772163
 10
2585292.049996962
 20
1220609.011771574
 10
2585291.725996962
 20
1220609.534771548
  0
LWPOLYLINE
  5
C5
102
{ACAD_XDICTIONARY
360
C6
102
}
330
70
100
AcDbEntity
  8
e311_bruecken
100
AcDbPolyline
 90
       22
 70
     1
 43
0.0
 10
2585388.918996974
 20
1220666.153768219
 10
2585379.116151493
 20
1220682.367274651
 10
2585407.860996972
 20
1220699.938766236
 10
2585421.103996974
 20
1220708.061765762
 10
2585424.163996975
 20
1220709.941765647
 10
2585424.693996976
 20
1220709.111765698
 10
2585429.292996975
 20
1220711.952765533
 10
2585428.781996975
 20
1220712.782765484
 10
2585447.001996977
 20
1220723.784764835
 10
2585447.432015528
 20
1220721.488091216
 10
2585448.745521734
 20
1220719.795428679
 10
2585450.329853963
 20
1220718.915244159
 10
2585451.940996979
 20
1220718.779765126
 10
2585458.136996982
 20
1220708.659765718
 10
2585464.797996984
 20
1220698.869766292
 10
2585472.187996988
 20
1220687.720766943
 10
2585466.227996988
 20
1220683.699767176
 10
2585410.193437518
 20
1220646.604700545
 10
2585407.532996979
 20
1220650.18476915
 10
2585401.671996979
 20
1220645.996769395
 10
2585395.545996977
 20
1220654.873768877
 10
2585394.957996976
 20
1220655.874768821
  0
LWPOLYLINE
  5
C8
102
{ACAD_XDICTIONARY
360
C9
102
}
330
70
100
AcDbEntity
  8
e311_bruecken
100
AcDbPolyline
 90
        8
 70
     1
 43
0.0
 10
2585678.320997006
 20
1220861.97375672
 10
2585688.242997007
 20
1220869.413756281
 10
2585691.463997008
 20
1220866.996756428
 10
2585698.721997011
 20
1220856.147757059
 10
2585700.881165709
 20
1220853.311690314
 10
2585690.399136147
 20
1220846.559920784
 10
2585688.02999701
 20
1220849.640757442
 10
2585681.466997007
 20
1220859.443756863
  0
LWPOLYLINE
  5
CB
102
{ACAD_XDICTIONARY
360
CC
102
}
330
70
100
AcDbEntity
  8
e311_bruecken
100
AcDbPolyline
 90
       10
 70
     1
 43
0.0
 10
2585802.326997021
 20
1220941.727752036
 10
2585814.935997022
 20
1220950.108751546
 10
2585815.279997022
 20
1220949.615751573
 10
2585821.869997025
 20
1220939.964752136
 10
2585822.429997025
 20
1220939.134752184
 10
2585809.562997024
 20
1220930.916752667
 10
2585809.217997024
 20
1220931.432752639
 10
2585809.089997023
 20
1220931.345752641
 10
2585802.593997021
 20
1220941.083752075
 10
2585802.707997021
 20
1220941.160752071
  0
LWPOLYLINE
  5
CE
102
{ACAD_XDICTIONARY
360
CF
102
}
330
70
100
AcDbEntity
  8
e311_bruecken
100
AcDbPolyline
 90
        8
 70
     1
 43
0.0
 10
2585962.93399704
 20
1221051.280745614
 10
2585964.322997039
 20
1221052.218745551
 10
2585965.210532379
 20
1221050.925782405
 10
2585971.732156552
 20
1221041.280720177
 10
2585972.420997042
 20
1221040.219746253
 10
2585971.030997042
 20
1221039.281746306
 10
2585970.404997042
 20
1221040.209746255
 10
2585963.930997039
 20
1221049.802745693
  0
LWPOLYLINE
  5
D1
102
{ACAD_XDICTIONARY
360
D2
102
}
330
70
100
AcDbEntity
  8
e311_bruecken
100
AcDbPolyline
 90
        4
 70
     1
 43
0.0
 10
2586197.298997073
 20
1221162.832739054
 10
2586203.338997075
 20
1221161.911739107
 10
2586202.94614697
 20
1221157.408281656
 10
2586196.581997074
 20
1221158.415739312
  0
LWPOLYLINE
  5
D4
102
{ACAD_XDICTIONARY
360
D5
102
}
330
70
100
AcDbEntity
  8
e311_bruecken
100
AcDbPolyline
 90
        5
 70
     1
 43
0.0
 10
2586196.099997074
 20
1221155.451739487
 10
2586200.603997075
 20
1221152.14773968
 10
2586199.690997076
 20
1221145.932740042
 10
2586195.099997075
 20
1221149.300739846
 10
2586195.151997074
 20
1221149.617739828
  0
LWPOLYLINE
  5
D7
102
{ACAD_XDICTIONARY
360
D8
102
}
330
70
100
AcDbEntity
  8
e311_bruecken
100
AcDbPolyline
 90
       15
 70
     1
 43
0.0
 10
2586579.64599712
 20
1221426.987723565
 10
2586583.114997121
 20
1221425.702723632
 10
2586587.293997122
 20
1221424.486723713
 10
2586594.2556339
 20
1221423.212382643
 10
2586601.420997124
 20
1221422.422723829
 10
2586606.277078888
 20
1221422.135316825
 10
2586611.009997127
 20
1221422.084723845
 10
2586590.831997124
 20
1221409.321724595
 10
2586587.382997123
 20
1221409.962724559
 10
2586583.415486976
 20
1221410.843497773
 10
2586579.135997121
 20
1221412.121724431
 10
2586574.972680236
 20
1221413.553534349
 10
2586571.146997118
 20
1221415.095724263
 10
2586569.158997118
 20
1221415.980724209
 10
2586567.862997118
 20
1221416.616724174
  0
LWPOLYLINE
  5
DA
102
{ACAD_XDICTIONARY
360
DB
102
}
330
70
100
AcDbEntity
  8
e311_bruecken
100
AcDbPolyline
 90
        5
 70
     1
 43
0.0
 10
2586882.569997167
 20
1221558.718715826
 10
2586884.201997167
 20
1221561.28571568
 10
2586902.246997173
 20
1221549.879716343
 10
2586900.644997172
 20
1221547.335716492
 10
2586885.089997168
 20
1221557.131715921
  0
LWPOLYLINE
  5
DD
102
{ACAD_XDICTIONARY
360
DE
102
}
330
70
100
AcDbEntity
  8
e311_bruecken
100
AcDbPolyline
 90
        8
 70
     1
 43
0.0
 10
2587178.128997197
 20
1221829.303699991
 10
2587188.997997199
 20
1221833.624699729
 10
2587189.929997199
 20
1221831.597699847
 10
2587199.060997203
 20
1221809.773701123
 10
2587196.750997204
 20
1221808.313701217
 10
2587189.139997203
 20
1221805.053701403
 10
2587189.286997203
 20
1221804.054701463
 10
2587188.960997202
 20
1221803.939701465
  0
LWPOLYLINE
  5
E0
102
{ACAD_XDICTIONARY
360
E1
102
}
330
70
100
AcDbEntity
  8
e311_bruecken
100
AcDbPolyline
 90
        5
 70
     1
 43
0.0
 10
2587282.934997205
 20
1221945.075693214
 10
2587303.565997211
 20
1221939.140693558
 10
2587303.277997211
 20
1221938.007693621
 10
2587302.298997211
 20
1221935.318693778
 10
2587281.825997205
 20
1221941.164693447
  0
LWPOLYLINE
  5
E3
102
{ACAD_XDICTIONARY
360
E4
102
}
330
70
100
AcDbEntity
  8
e311_bruecken
100
AcDbPolyline
 90
        5
 70
     1
 43
0.0
 10
2587017.944997072
 20
1222524.24965946
 10
2587024.460453274
 20
1222533.250311509
 10
2587030.497997074
 20
1222540.473658509
 10
2587037.187997077
 20
1222519.240659747
 10
2587025.486997078
 20
1222500.821660827
  0
LWPOLYLINE
  5
E6
102
{ACAD_XDICTIONARY
360
E7
102
}
330
70
100
AcDbEntity
  8
e311_bruecken
100
AcDbPolyline
 90
        4
 70
     1
 43
0.0
 10
2586554.013996864
 20
1223317.124613319
 10
2586571.789996867
 20
1223323.358612952
 10
2586572.414996867
 20
1223321.53661306
 10
2586554.611996864
 20
1223315.405613418
  0
LWPOLYLINE
  5
E9
102
{ACAD_XDICTIONARY
360
EA
102
}
330
70
100
AcDbEntity
  8
e311_bruecken
100
AcDbPolyline
 90
        7
 70
     1
 43
0.0
 10
2584893.804806648
 20
1220384.188265213
 10
2584893.110996913
 20
1220379.06378509
 10
2584883.677996913
 20
1220373.537785421
 10
2584883.567583018
 20
1220374.347125228
 10
2584884.253111387
 20
1220378.536465005
 10
2584884.430996912
 20
1220378.628785121
 10
2584884.908996913
 20
1220378.910785103
  0
LWPOLYLINE
  5
EC
102
{ACAD_XDICTIONARY
360
ED
102
}
330
70
100
AcDbEntity
  8
e311_bruecken
100
AcDbPolyline
 90
        7
 70
     1
 43
0.0
 10
2584908.868996907
 20
1220446.999781112
 10
2584908.625073047
 20
1220447.288767487
 10
2584917.249996907
 20
1220455.601780607
 10
2584921.91146973
 20
1220450.303663941
 10
2584922.434996909
 20
1220449.377780973
 10
2584913.927996909
 20
1220440.929781467
 10
2584913.316996909
 20
1220441.661781426
  0
LWPOLYLINE
  5
EF
102
{ACAD_XDICTIONARY
360
F0
102
}
330
70
100
AcDbEntity
  8
e311_bruecken
100
AcDbPolyline
 90
       13
 70
     1
 43
0.0
 10
2585038.857996889
 20
1220747.762763495
 10
2585039.40399689
 20
1220747.302763521
 10
2585039.768996889
 20
1220747.220763522
 10
2585047.762996892
 20
1220738.138764054
 10
2585047.709996892
 20
1220737.881764071
 10
2585050.195250116
 20
1220734.953592022
 10
2585049.424030703
 20
1220731.290300028
 10
2585046.056996895
 20
1220717.763765244
 10
2585045.875996895
 20
1220717.067765285
 10
2585037.623996892
 20
1220726.338764748
 10
2585035.519996891
 20
1220728.702764607
 10
2585034.994996892
 20
1220728.812764604
 10
2585035.455996891
 20
1220731.178764464
  0
LWPOLYLINE
  5
F2
102
{ACAD_XDICTIONARY
360
F3
102
}
330
70
100
AcDbEntity
  8
e311_bruecken
100
AcDbPolyline
 90
        7
 70
     1
 43
0.0
 10
2585062.837535753
 20
1220863.287351365
 10
2585063.192996877
 20
1220863.232756734
 10
2585068.923996878
 20
1220862.048756806
 10
2585069.212949576
 20
1220862.007698485
 10
2585068.749996879
 20
1220859.532756957
 10
2585062.780996878
 20
1220860.741756883
 10
2585062.435996878
 20
1220860.798756875
  0
LWPOLYLINE
  5
F5
102
{ACAD_XDICTIONARY
360
F6
102
}
330
70
100
AcDbEntity
  8
e311_bruecken
100
AcDbPolyline
 90
        8
 70
     1
 43
0.0
 10
2585131.855996877
 20
1220967.324750638
 10
2585142.005996877
 20
1220973.398750275
 10
2585142.310996878
 20
1220972.88175031
 10
2585145.325996879
 20
1220968.591750565
 10
2585145.625996879
 20
1220968.181750583
 10
2585135.251996877
 20
1220962.395750923
 10
2585135.106996877
 20
1220962.60175091
 10
2585132.136996876
 20
1220966.851750666
  0
LWPOLYLINE
  5
F8
102
{ACAD_XDICTIONARY
360
F9
102
}
330
70
100
AcDbEntity
  8
e311_bruecken
100
AcDbPolyline
 90
       66
 70
     1
 43
0.0
 10
2585182.458996883
 20
1220996.55274892
 10
2585208.164996886
 20
1221011.812748019
 10
2585198.565996882
 20
1221024.650747271
 10
2585196.718996881
 20
1221027.119747132
 10
2585199.728996881
 20
1221028.908747024
 10
2585200.650996882
 20
1221027.571747103
 10
2585201.205996882
 20
1221027.217747127
 10
2585202.497996883
 20
1221027.107747129
 10
2585205.174996882
 20
1221028.111747072
 10
2585222.715996885
 20
1221036.782746558
 10
2585251.92399689
 20
1221049.801745796
 10
2585255.234996889
 20
1221051.503745698
 10
2585254.180996889
 20
1221053.61574557
 10
2585261.075996891
 20
1221057.155745367
 10
2585262.15799689
 20
1221055.040745489
 10
2585268.402996892
 20
1221058.151745304
 10
2585270.391246471
 20
1221059.559824358
 10
2585272.203612094
 20
1221061.449311811
 10
2585289.067996895
 20
1221064.455744932
 10
2585290.462231722
 20
1221063.878652814
 10
2585292.329996896
 20
1221063.586744984
 10
2585299.691996898
 20
1221064.851744904
 10
2585308.431644072
 20
1221066.03806705
 10
2585315.1899969
 20
1221066.6387448
 10
2585321.171996902
 20
1221067.003744777
 10
2585327.164996903
 20
1221067.107744777
 10
2585326.166996905
 20
1221051.560745679
 10
2585324.299996904
 20
1221051.673745677
 10
2585321.658057027
 20
1221051.963313569
 10
2585317.917642869
 20
1221051.654825822
 10
2585313.421996902
 20
1221050.924745726
 10
2585308.206996901
 20
1221049.688745787
 10
2585301.840996901
 20
1221047.961745897
 10
2585293.272996899
 20
1221045.391746046
 10
2585292.175996899
 20
1221045.055746068
 10
2585292.319996899
 20
1221044.680746089
 10
2585284.775996898
 20
1221042.327746227
 10
2585284.512996897
 20
1221042.387746225
 10
2585284.203996897
 20
1221042.393746221
 10
2585284.030996898
 20
1221042.51074622
 10
2585283.048996897
 20
1221042.133746236
 10
2585283.101996897
 20
1221042.02174625
 10
2585279.051996897
 20
1221040.412746336
 10
2585279.007996897
 20
1221040.532746338
 10
2585278.759996896
 20
1221040.493746342
 10
2585278.618996897
 20
1221040.701746326
 10
2585278.306996897
 20
1221040.500746335
 10
2585277.987996896
 20
1221041.233746295
 10
2585275.280996896
 20
1221040.171746358
 10
2585275.567996896
 20
1221039.585746392
 10
2585275.177996896
 20
1221039.337746402
 10
2585275.215996896
 20
1221039.085746415
 10
2585275.025996896
 20
1221038.953746419
 10
2585275.053996896
 20
1221038.834746433
 10
2585271.007996895
 20
1221037.229746529
 10
2585270.953996895
 20
1221037.341746526
 10
2585269.986996896
 20
1221036.967746542
 10
2585254.265996893
 20
1221028.987747013
 10
2585252.577996893
 20
1221029.265746996
 10
2585252.325431696
 20
1221028.4122021
 10
2585243.486996891
 20
1221023.247747345
 10
2585214.491996889
 20
1221002.847748549
 10
2585213.106996887
 20
1221004.812748429
 10
2585200.266996886
 20
1220997.422748868
 10
2585187.75508625
 20
1220988.867928971
 10
2585185.629996884
 20
1220992.055749182
  0
LWPOLYLINE
  5
FB
102
{ACAD_XDICTIONARY
360
FC
102
}
330
70
100
AcDbEntity
  8
e311_bruecken
100
AcDbPolyline
 90
       47
 70
     1
 43
0.0
 10
2585327.164996903
 20
1221067.107744777
 10
2585334.546996904
 20
1221066.822744784
 10
2585341.729042276
 20
1221065.257207434
 10
2585347.050456234
 20
1221063.32915901
 10
2585356.99599691
 20
1221061.877745068
 10
2585356.021996909
 20
1221065.329744868
 10
2585366.984996911
 20
1221067.846744722
 10
2585383.128996915
 20
1221069.901744607
 10
2585383.471293068
 20
1221069.691718802
 10
2585393.319996916
 20
1221073.345744401
 10
2585404.278996918
 20
1221078.744744083
 10
2585413.974996919
 20
1221084.108743767
 10
2585419.525800677
 20
1221088.200983646
 10
2585425.502751137
 20
1221091.632909843
 10
2585431.59799692
 20
1221096.853743014
 10
2585431.749996921
 20
1221096.644743035
 10
2585437.248996921
 20
1221100.971742774
 10
2585437.664996921
 20
1221100.938742783
 10
2585442.005996922
 20
1221104.533742568
 10
2585448.822996922
 20
1221110.156742238
 10
2585455.467996923
 20
1221115.613741919
 10
2585462.176996923
 20
1221122.279741528
 10
2585465.737996924
 20
1221126.32074129
 10
2585470.324996924
 20
1221131.904740957
 10
2585485.619304468
 20
1221109.17815047
 10
2585473.589996929
 20
1221101.203742758
 10
2585474.92499693
 20
1221099.205742872
 10
2585470.937996928
 20
1221096.438743042
 10
2585469.305996929
 20
1221098.528742917
 10
2585458.444996927
 20
1221088.071743522
 10
2585454.602996927
 20
1221085.240743693
 10
2585442.097996926
 20
1221077.764744131
 10
2585442.230996926
 20
1221077.585744141
 10
2585435.344996925
 20
1221073.2207444
 10
2585435.214996925
 20
1221073.361744398
 10
2585428.999996924
 20
1221069.829744597
 10
2585429.063996924
 20
1221069.749744607
 10
2585423.998873283
 20
1221067.281658272
 10
2585420.844996924
 20
1221065.817744833
 10
2585398.178996919
 20
1221055.90374542
 10
2585393.207996919
 20
1221053.682745546
 10
2585387.780996918
 20
1221051.311745687
 10
2585378.117996916
 20
1221047.675745901
 10
2585363.534996913
 20
1221044.778746073
 10
2585345.658996909
 20
1221048.977745828
 10
2585329.068996905
 20
1221051.378745697
 10
2585326.166996905
 20
1221051.560745679
  0
LWPOLYLINE
  5
FE
102
{ACAD_XDICTIONARY
360
FF
102
}
330
70
100
AcDbEntity
  8
e311_bruecken
100
AcDbPolyline
 90
        8
 70
     1
 43
0.0
 10
2585519.362996907
 20
1221322.242729828
 10
2585521.596996907
 20
1221321.91372985
 10
2585523.697996907
 20
1221327.09772955
 10
2585525.956996908
 20
1221326.187729598
 10
2585524.135996908
 20
1221320.636729922
 10
2585523.612996909
 20
1221314.354730294
 10
2585523.314996909
 20
1221312.24973041
 10
2585518.583996908
 20
1221313.959730312
  0
LWPOLYLINE
  5
101
102
{ACAD_XDICTIONARY
360
102
102
}
330
70
100
AcDbEntity
  8
e311_bruecken
100
AcDbPolyline
 90
       17
 70
     1
 43
0.0
 10
2585593.51299691
 20
1221410.050724687
 10
2585593.79899691
 20
1221410.053724688
 10
2585593.801996911
 20
1221409.051724748
 10
2585607.153843852
 20
1221418.350355218
 10
2585607.084996912
 20
1221420.593724076
 10
2585609.033691175
 20
1221420.80861695
 10
2585611.749996913
 20
1221420.831724057
 10
2585615.434996913
 20
1221422.995723935
 10
2585617.412996914
 20
1221419.722724116
 10
2585610.123996913
 20
1221414.722724416
 10
2585609.573996913
 20
1221413.132724508
 10
2585608.665996913
 20
1221412.492724543
 10
2585593.822996912
 20
1221402.111725156
 10
2585593.826996912
 20
1221401.076725215
 10
2585593.533996912
 20
1221401.074725212
 10
2585593.529996911
 20
1221401.958725165
 10
2585593.51999691
 20
1221408.854724758
  0
LWPOLYLINE
  5
104
102
{ACAD_XDICTIONARY
360
105
102
}
330
70
100
AcDbEntity
  8
e311_bruecken
100
AcDbPolyline
 90
       11
 70
     1
 43
0.0
 10
2585676.40699692
 20
1221465.74072142
 10
2585686.052996921
 20
1221472.568721027
 10
2585686.805996921
 20
1221471.464721082
 10
2585689.875996923
 20
1221466.908721357
 10
2585690.285996923
 20
1221466.296721389
 10
2585690.035996923
 20
1221466.129721401
 10
2585680.877996922
 20
1221459.675721776
 10
2585680.877996922
 20
1221459.675721776
 10
2585680.628996922
 20
1221459.508721782
 10
2585680.167996922
 20
1221459.915721759
 10
2585677.05599692
 20
1221464.52772149
  0
LWPOLYLINE
  5
107
102
{ACAD_XDICTIONARY
360
108
102
}
330
70
100
AcDbEntity
  8
e311_bruecken
100
AcDbPolyline
 90
       18
 70
     1
 43
0.0
 10
2585747.182996939
 20
1221441.114722848
 10
2585750.440996939
 20
1221444.166722673
 10
2585750.770996939
 20
1221444.483722658
 10
2585750.876996939
 20
1221444.376722657
 10
2585750.540996939
 20
1221444.054722678
 10
2585761.561610807
 20
1221432.27568492
 10
2585765.514996944
 20
1221427.965723619
 10
2585765.866996945
 20
1221428.308723595
 10
2585765.971996945
 20
1221428.200723609
 10
2585762.353996944
 20
1221424.759723808
 10
2585760.545996944
 20
1221423.04072391
 10
2585760.357996945
 20
1221423.232723898
 10
2585760.978996944
 20
1221423.836723857
 10
2585761.061996944
 20
1221423.751723863
 10
2585762.260996944
 20
1221424.869723798
 10
2585747.284996939
 20
1221441.004722856
 10
2585746.879996939
 20
1221440.616722889
 10
2585746.775996939
 20
1221440.724722874
  0
LWPOLYLINE
  5
10A
102
{ACAD_XDICTIONARY
360
10B
102
}
330
70
100
AcDbEntity
  8
e311_bruecken
100
AcDbPolyline
 90
        4
 70
     1
 43
0.0
 10
2585816.030996963
 20
1221372.046726876
 10
2585820.653996965
 20
1221375.077726703
 10
2585825.923996966
 20
1221368.908727058
 10
2585821.288996965
 20
1221365.786727239
  0
LWPOLYLINE
  5
10D
102
{ACAD_XDICTIONARY
360
10E
102
}
330
70
100
AcDbEntity
  8
e311_bruecken
100
AcDbPolyline
 90
        8
 70
     1
 43
0.0
 10
2585907.711996995
 20
1221282.508732101
 10
2585908.102996996
 20
1221282.776732081
 10
2585907.922996995
 20
1221283.046732066
 10
2585912.145996996
 20
1221285.838731905
 10
2585912.321996996
 20
1221285.65973191
 10
2585931.360997001
 20
1221272.717732668
 10
2585926.806997001
 20
1221269.701732844
 10
2585926.502997001
 20
1221269.949732834
  0
LWPOLYLINE
  5
110
102
{ACAD_XDICTIONARY
360
111
102
}
330
70
100
AcDbEntity
  8
e311_bruecken
100
AcDbPolyline
 90
        8
 70
     1
 43
0.0
 10
2585991.370997018
 20
1221248.651734067
 10
2585992.985997018
 20
1221248.037734102
 10
2585989.860997019
 20
1221239.576734595
 10
2585989.749997019
 20
1221239.615734599
 10
2585989.542997019
 20
1221239.292734612
 10
2585988.232997018
 20
1221239.790734588
 10
2585988.378997019
 20
1221240.171734561
 10
2585988.175997018
 20
1221240.248734555
  0
LWPOLYLINE
  5
113
102
{ACAD_XDICTIONARY
360
114
102
}
330
70
100
AcDbEntity
  8
e311_bruecken
100
AcDbPolyline
 90
        9
 70
     1
 43
0.0
 10
2586155.993997056
 20
1221222.09073559
 10
2586156.286997056
 20
1221222.026735601
 10
2586156.167997056
 20
1221221.51473563
 10
2586164.520997059
 20
1221219.652735739
 10
2586163.36090047
 20
1221214.568289717
 10
2586163.172997059
 20
1221213.743736079
 10
2586154.783997057
 20
1221215.563735979
 10
2586154.596997057
 20
1221214.755736028
 10
2586154.304997057
 20
1221214.823736025
  0
LWPOLYLINE
  5
116
102
{ACAD_XDICTIONARY
360
117
102
}
330
70
100
AcDbEntity
  8
e311_bruecken
100
AcDbPolyline
 90
       12
 70
     1
 43
0.0
 10
2585055.494996843
 20
1221084.202743812
 10
2585064.345698129
 20
1221086.244014522
 10
2585069.492996845
 20
1221087.818743599
 10
2585071.749404503
 20
1221088.986127829
 10
2585073.883996846
 20
1221089.744743487
 10
2585074.163996846
 20
1221089.204743521
 10
2585065.057996846
 20
1221077.871744173
 10
2585063.039996846
 20
1221077.323744219
 10
2585059.605996845
 20
1221076.508744263
 10
2585051.770996845
 20
1221074.664744371
 10
2585047.413996843
 20
1221072.748744484
 10
2585041.210996843
 20
1221068.69074472
  0
LWPOLYLINE
  5
119
102
{ACAD_XDICTIONARY
360
11A
102
}
330
70
100
AcDbEntity
  8
e311_bruecken
100
AcDbPolyline
 90
        8
 70
     1
 43
0.0
 10
2586187.792996934
 20
1222168.152680339
 10
2586188.644996934
 20
1222168.050680344
 10
2586197.287996935
 20
1222175.602679904
 10
2586196.535996937
 20
1222163.339680619
 10
2586196.384996937
 20
1222163.35468062
 10
2586193.289996936
 20
1222163.670680598
 10
2586187.677996935
 20
1222158.991680875
 10
2586187.246996935
 20
1222158.632680899
  0
LWPOLYLINE
  5
11C
102
{ACAD_XDICTIONARY
360
11D
102
}
330
70
100
AcDbEntity
  8
e311_bruecken
100
AcDbPolyline
 90
        4
 70
     1
 43
0.0
 10
2586137.112997321
 20
1219266.151850137
 10
2586146.179997323
 20
1219263.151850317
 10
2586118.927997328
 20
1219181.065855132
 10
2586109.879997326
 20
1219184.110854958
  0
LWPOLYLINE
  5
11F
102
{ACAD_XDICTIONARY
360
120
102
}
330
70
100
AcDbEntity
  8
e311_bruecken
100
AcDbPolyline
 90
        9
 70
     1
 43
0.0
 10
2584604.361876013
 20
1220214.594745767
 10
2584609.654996881
 20
1220217.368794603
 10
2584610.402996881
 20
1220215.938794686
 10
2584615.839996884
 20
1220205.547795295
 10
2584616.422996884
 20
1220204.432795359
 10
2584605.902996883
 20
1220198.888795687
 10
2584605.339996882
 20
1220199.952795625
 10
2584599.82699688
 20
1220210.363795016
 10
2584599.063996879
 20
1220211.804794927
  0
LWPOLYLINE
  5
122
102
{ACAD_XDICTIONARY
360
123
102
}
330
70
100
AcDbEntity
  8
e311_bruecken
100
AcDbPolyline
 90
        5
 70
     1
 43
0.0
 10
2584287.716996803
 20
1220300.86678976
 10
2584289.117996803
 20
1220303.419789614
 10
2584309.216996809
 20
1220293.082790216
 10
2584310.264493359
 20
1220292.585018566
 10
2584308.835996808
 20
1220290.018790399
  0
LWPOLYLINE
  5
125
102
{ACAD_XDICTIONARY
360
126
102
}
330
70
100
AcDbEntity
  8
e311_bruecken
100
AcDbPolyline
 90
        4
 70
     1
 43
0.0
 10
2584269.888996798
 20
1220310.022789231
 10
2584271.233996798
 20
1220312.618789078
 10
2584280.9669968
 20
1220307.57778937
 10
2584279.597996801
 20
1220304.997789522
  0
LWPOLYLINE
  5
128
102
{ACAD_XDICTIONARY
360
129
102
}
330
70
100
AcDbEntity
  8
e311_bruecken
100
AcDbPolyline
 90
       10
 70
     1
 43
0.0
 10
2585868.017996897
 20
1221927.791694415
 10
2585884.776996898
 20
1221938.691693775
 10
2585885.535996899
 20
1221939.287693733
 10
2585884.1269969
 20
1221935.544693955
 10
2585883.2419969
 20
1221931.707694185
 10
2585882.6959969
 20
1221931.095694217
 10
2585870.505996898
 20
1221923.285694672
 10
2585869.795996898
 20
1221923.710694649
 10
2585868.177996897
 20
1221927.082694452
 10
2585867.713537695
 20
1221927.190843326
  0
LWPOLYLINE
  5
12B
102
{ACAD_XDICTIONARY
360
12C
102
}
330
70
100
AcDbEntity
  8
e311_bruecken
100
AcDbPolyline
 90
        4
 70
     1
 43
0.0
 10
2586985.908997168
 20
1221716.276706614
 10
2586988.41299717
 20
1221718.343706488
 10
2586996.914997173
 20
1221708.217707083
 10
2586994.435997173
 20
1221706.140707203
  0
LWPOLYLINE
  5
12E
102
{ACAD_XDICTIONARY
360
12F
102
}
330
70
100
AcDbEntity
  8
e311_bruecken
100
AcDbPolyline
 90
        7
 70
     1
 43
0.0
 10
2587067.900997175
 20
1221809.151701175
 10
2587069.998997175
 20
1221811.727701028
 10
2587075.283997177
 20
1221807.367701278
 10
2587076.155755174
 20
1221806.624650814
 10
2587074.117436949
 20
1221804.146241303
 10
2587072.931997176
 20
1221805.054701417
 10
2587068.306997176
 20
1221808.821701195
  0
LWPOLYLINE
  5
131
102
{ACAD_XDICTIONARY
360
132
102
}
330
70
100
AcDbEntity
  8
e311_bruecken
100
AcDbPolyline
 90
       17
 70
     1
 43
0.0
 10
2585811.29799689
 20
1221882.629697059
 10
2585811.462996891
 20
1221882.455697068
 10
2585814.850996891
 20
1221885.606696882
 10
2585814.747996892
 20
1221885.719696877
 10
2585815.255996891
 20
1221886.339696841
 10
2585818.209996892
 20
1221883.203697024
 10
2585819.049397711
 20
1221882.623101328
 10
2585818.247996892
 20
1221881.909697096
 10
2585817.898996892
 20
1221882.289697082
 10
2585814.549996892
 20
1221879.174697255
 10
2585814.814996892
 20
1221878.892697275
 10
2585811.216996892
 20
1221875.761697459
 10
2585810.941996891
 20
1221876.064697438
 10
2585813.737996891
 20
1221878.838697274
 10
2585811.165996891
 20
1221881.578697119
 10
2585808.37799689
 20
1221878.863697275
 10
2585808.082996891
 20
1221879.188697257
  0
LWPOLYLINE
  5
134
102
{ACAD_XDICTIONARY
360
135
102
}
330
70
100
AcDbEntity
  8
e311_bruecken
100
AcDbPolyline
 90
        5
 70
     1
 43
0.0
 10
2587064.803997085
 20
1222509.708660296
 10
2587070.952997086
 20
1222511.838660173
 10
2587071.156470801
 20
1222511.925180409
 10
2587072.036997087
 20
1222509.271660327
 10
2587065.714997085
 20
1222507.079660452
  0
LWPOLYLINE
  5
137
102
{ACAD_XDICTIONARY
360
138
102
}
330
70
100
AcDbEntity
  8
e311_bruecken
100
AcDbPolyline
 90
       12
 70
     1
 43
0.0
 10
2585860.70399698
 20
1221321.40672983
 10
2585860.94699698
 20
1221321.763729807
 10
2585863.81599698
 20
1221325.975729562
 10
2585863.94499698
 20
1221326.165729556
 10
2585864.08099698
 20
1221326.072729555
 10
2585863.95499698
 20
1221325.886729571
 10
2585865.923996981
 20
1221324.633729641
 10
2585866.048996981
 20
1221324.830729633
 10
2585866.178996981
 20
1221324.726729636
 10
2585863.181996981
 20
1221320.109729908
 10
2585861.076630939
 20
1221321.667162014
 10
2585860.85099698
 20
1221321.329729837
  0
LWPOLYLINE
  5
13A
102
{ACAD_XDICTIONARY
360
13B
102
}
330
70
100
AcDbEntity
  8
e311_bruecken
100
AcDbPolyline
 90
        5
 70
     1
 43
0.0
 10
2586628.813997126
 20
1221454.822721935
 10
2586666.637997133
 20
1221465.941721278
 10
2586666.747997133
 20
1221465.566721298
 10
2586667.755997133
 20
1221462.1327215
 10
2586629.897997127
 20
1221450.977722154
  0
LWPOLYLINE
  5
13D
102
{ACAD_XDICTIONARY
360
13E
102
}
330
70
100
AcDbEntity
  8
e311_bruecken
100
AcDbPolyline
 90
        4
 70
     1
 43
0.0
 10
2587143.627997189
 20
1221831.227699878
 10
2587149.67599719
 20
1221830.532699913
 10
2587148.977997192
 20
1221824.453700276
 10
2587142.978997189
 20
1221825.172700233
  0
LWPOLYLINE
  5
140
102
{ACAD_XDICTIONARY
360
141
102
}
330
70
100
AcDbEntity
  8
e311_bruecken
100
AcDbPolyline
 90
        7
 70
     1
 43
0.0
 10
2586153.160997061
 20
1221180.685738018
 10
2586154.828997062
 20
1221181.902737944
 10
2586156.522997062
 20
1221183.885737831
 10
2586158.039997063
 20
1221181.409737976
 10
2586166.693997067
 20
1221167.2807388
 10
2586164.309997065
 20
1221166.768738828
 10
2586162.324997066
 20
1221165.763738891
  0
LWPOLYLINE
  5
143
102
{ACAD_XDICTIONARY
360
144
102
}
330
70
100
AcDbEntity
  8
e311_bruecken
100
AcDbPolyline
 90
       20
 70
     1
 43
0.0
 10
2585566.567996994
 20
1220783.321761334
 10
2585585.048996996
 20
1220795.797760607
 10
2585585.326996996
 20
1220795.68476061
 10
2585585.014996996
 20
1220794.327760694
 10
2585584.948441939
 20
1220792.056320844
 10
2585585.598424391
 20
1220789.709162124
 10
2585587.006719706
 20
1220787.289783138
 10
2585588.631675838
 20
1220785.773157505
 10
2585590.942724559
 20
1220784.68985348
 10
2585592.326996999
 20
1220784.277761273
 10
2585592.693996999
 20
1220783.922761299
 10
2585574.391996997
 20
1220771.562762031
 10
2585574.216996997
 20
1220772.047761993
 10
2585574.389996997
 20
1220772.886761947
 10
2585574.512612561
 20
1220774.687346325
 10
2585574.187621335
 20
1220776.890064504
 10
2585573.047996996
 20
1220779.075761588
 10
2585571.443250977
 20
1220781.078840063
 10
2585569.49330362
 20
1220782.162144089
 10
2585567.906996994
 20
1220782.774761369
  0
LWPOLYLINE
  5
146
102
{ACAD_XDICTIONARY
360
147
102
}
330
70
100
AcDbEntity
  8
e311_bruecken
100
AcDbPolyline
 90
       38
 70
     1
 43
0.0
 10
2585361.15799688
 20
1221272.746732745
 10
2585368.214996883
 20
1221267.043733077
 10
2585377.387996885
 20
1221264.45673323
 10
2585397.92999689
 20
1221260.770733441
 10
2585397.84699689
 20
1221260.075733479
 10
2585398.80999689
 20
1221259.946733495
 10
2585398.91499689
 20
1221260.676733447
 10
2585408.434996892
 20
1221258.966733541
 10
2585406.879996892
 20
1221257.17573365
 10
2585423.713996897
 20
1221250.976734011
 10
2585434.404996899
 20
1221245.817734311
 10
2585432.9549969
 20
1221242.750734487
 10
2585430.5539969
 20
1221237.324734805
 10
2585429.3559969
 20
1221238.803734722
 10
2585425.900996899
 20
1221241.477734565
 10
2585424.756996898
 20
1221242.094734529
 10
2585424.566996898
 20
1221241.667734552
 10
2585416.069996896
 20
1221246.098734298
 10
2585416.508996896
 20
1221246.873734251
 10
2585415.214996895
 20
1221248.889734133
 10
2585412.689996895
 20
1221248.869734139
 10
2585412.485996895
 20
1221248.370734169
 10
2585412.485996895
 20
1221247.959734188
 10
2585403.035996892
 20
1221250.895734018
 10
2585403.129996892
 20
1221251.326733995
 10
2585402.064996892
 20
1221251.627733973
 10
2585401.748996892
 20
1221250.524734038
 10
2585402.097996893
 20
1221250.420734045
 10
2585401.479996892
 20
1221248.281734172
 10
2585386.779996889
 20
1221248.603734153
 10
2585374.384996886
 20
1221256.597733685
 10
2585368.311996885
 20
1221252.338733939
 10
2585365.994996884
 20
1221256.14473372
 10
2585363.401996882
 20
1221257.767733622
 10
2585364.824996883
 20
1221259.48273352
 10
2585363.323185848
 20
1221260.240744376
 10
2585359.910539939
 20
1221262.496561035
 10
2585356.29699688
 20
1221265.338733181
  0
LWPOLYLINE
  5
149
102
{ACAD_XDICTIONARY
360
14A
102
}
330
70
100
AcDbEntity
  8
e311_bruecken
100
AcDbPolyline
 90
        8
 70
     1
 43
0.0
 10
2584492.472996867
 20
1220155.759798233
 10
2584498.130996867
 20
1220158.775798056
 10
2584498.770996867
 20
1220157.57379812
 10
2584504.801996871
 20
1220146.252798788
 10
2584505.000251808
 20
1220145.8362545
 10
2584499.333217299
 20
1220142.888482686
 10
2584499.115996869
 20
1220143.227798962
 10
2584493.111996867
 20
1220154.556798302
  0
LWPOLYLINE
  5
14C
102
{ACAD_XDICTIONARY
360
14D
102
}
330
70
100
AcDbEntity
  8
e311_bruecken
100
AcDbPolyline
 90
       20
 70
     1
 43
0.0
 10
2587189.047997137
 20
1222320.316671327
 10
2587201.800997138
 20
1222332.676670607
 10
2587201.674997138
 20
1222332.804670606
 10
2587203.284997138
 20
1222334.383670514
 10
2587203.410997138
 20
1222334.255670517
 10
2587201.800997138
 20
1222332.676670607
 10
2587203.025622827
 20
1222331.460679452
 10
2587204.669997139
 20
1222332.952670588
 10
2587204.794997139
 20
1222332.823670598
 10
2587203.154997139
 20
1222331.233670695
 10
2587203.029997139
 20
1222331.362670687
 10
2587189.725997137
 20
1222318.170671454
 10
2587189.849997137
 20
1222318.04067146
 10
2587188.213997138
 20
1222316.445671559
 10
2587188.089997137
 20
1222316.575671552
 10
2587189.977297825
 20
1222318.624680016
 10
2587188.761255703
 20
1222319.856163873
 10
2587186.685997137
 20
1222317.934671467
 10
2587186.559997136
 20
1222318.062671462
 10
2587188.672997137
 20
1222319.952671355
  0
LWPOLYLINE
  5
14F
102
{ACAD_XDICTIONARY
360
150
102
}
330
70
100
AcDbEntity
  8
e311_bruecken
100
AcDbPolyline
 90
        9
 70
     1
 43
0.0
 10
2587077.873997092
 20
1222475.752662281
 10
2587080.318997093
 20
1222477.327662185
 10
2587080.578997092
 20
1222477.42766218
 10
2587082.703997094
 20
1222478.416662122
 10
2587086.247997094
 20
1222480.706661992
 10
2587086.509997094
 20
1222473.856662389
 10
2587086.517997095
 20
1222472.036662495
 10
2587077.860997093
 20
1222468.4586627
 10
2587077.421997094
 20
1222468.276662713
  0
LWPOLYLINE
  5
152
102
{ACAD_XDICTIONARY
360
153
102
}
330
70
100
AcDbEntity
  8
e311_bruecken
100
AcDbPolyline
 90
        5
 70
     1
 43
0.0
 10
2589480.003695961
 20
1223605.265693681
 10
2589479.997181449
 20
1223605.395983897
 10
2589481.567178691
 20
1223605.760796511
 10
2589482.817964876
 20
1223600.523129668
 10
2589481.254482146
 20
1223600.106200968
  0
LWPOLYLINE
  5
155
102
{ACAD_XDICTIONARY
360
156
102
}
330
70
100
AcDbEntity
  8
e311_bruecken
100
AcDbPolyline
 90
        5
 70
     1
 43
0.0
 10
2586748.929996935
 20
1223125.927624428
 10
2586748.547996934
 20
1223117.518624919
 10
2586746.715996934
 20
1223117.639624911
 10
2586747.075996933
 20
1223125.568624449
 10
2586745.977996933
 20
1223127.358624346
  0
LWPOLYLINE
  5
158
102
{ACAD_XDICTIONARY
360
159
102
}
330
70
100
AcDbEntity
  8
e311_bruecken
100
AcDbPolyline
 90
        4
 70
     1
 43
0.0
 10
2586711.948996924
 20
1223134.796623918
 10
2586713.681996925
 20
1223133.957623965
 10
2586709.276996925
 20
1223124.959624489
 10
2586707.581996924
 20
1223125.781624443
  0
LWPOLYLINE
  5
15B
102
{ACAD_XDICTIONARY
360
15C
102
}
330
70
100
AcDbEntity
  8
e311_bruecken
100
AcDbPolyline
 90
        4
 70
     1
 43
0.0
 10
2586818.984996979
 20
1222905.395637268
 10
2586821.173996979
 20
1222905.353637271
 10
2586820.479996981
 20
1222891.008638109
 10
2586818.698996981
 20
1222890.780638116
  0
LWPOLYLINE
  5
15E
102
{ACAD_XDICTIONARY
360
15F
102
}
330
70
100
AcDbEntity
  8
e311_bruecken
100
AcDbPolyline
 90
        4
 70
     1
 43
0.0
 10
2586822.258996974
 20
1222952.403634532
 10
2586832.280996976
 20
1222949.699634689
 10
2586831.934996976
 20
1222948.162634779
 10
2586821.950996973
 20
1222950.85663462
  0
LWPOLYLINE
  5
161
102
{ACAD_XDICTIONARY
360
162
102
}
330
70
100
AcDbEntity
  8
e311_bruecken
100
AcDbPolyline
 90
        4
 70
     1
 43
0.0
 10
2584181.040996777
 20
1220329.983788073
 10
2584181.343996776
 20
1220332.995787905
 10
2584206.402996782
 20
1220330.684788031
 10
2584206.117996782
 20
1220327.645788212
  0
LWPOLYLINE
  5
164
102
{ACAD_XDICTIONARY
360
165
102
}
330
70
100
AcDbEntity
  8
e311_bruecken
100
AcDbPolyline
 90
       14
 70
     1
 43
0.0
 10
2585199.84399685
 20
1221245.937734339
 10
2585199.705996849
 20
1221248.008734215
 10
2585201.68799685
 20
1221248.562734187
 10
2585208.308083606
 20
1221242.194211167
 10
2585219.318996853
 20
1221253.162733912
 10
2585221.062124666
 20
1221254.687964938
 10
2585221.871996854
 20
1221253.761733878
 10
2585222.672996854
 20
1221252.604733945
 10
2585224.312996854
 20
1221252.339733955
 10
2585218.033996853
 20
1221248.147734206
 10
2585215.283996853
 20
1221245.147734383
 10
2585208.575996853
 20
1221239.455734711
 10
2585202.01299685
 20
1221245.990734334
 10
2585201.87399685
 20
1221245.831734338
  0
LWPOLYLINE
  5
167
102
{ACAD_XDICTIONARY
360
168
102
}
330
70
100
AcDbEntity
  8
e311_bruecken
100
AcDbPolyline
 90
        6
 70
     1
 43
0.0
 10
2585585.604996873
 20
1221653.273710477
 10
2585586.511996874
 20
1221654.084710434
 10
2585597.881996879
 20
1221641.373711173
 10
2585586.565996956
 20
1221631.187405058
 10
2585585.183996877
 20
1221631.646711741
 10
2585595.590996878
 20
1221641.492711172
  0
LWPOLYLINE
  5
16A
102
{ACAD_XDICTIONARY
360
16B
102
}
330
70
100
AcDbEntity
  8
e311_bruecken
100
AcDbPolyline
 90
        7
 70
     1
 43
0.0
 10
2586884.113997157
 20
1221642.274710953
 10
2586885.915997158
 20
1221640.002711079
 10
2586888.823997159
 20
1221636.334711292
 10
2586891.908001527
 20
1221632.441103618
 10
2586889.719125706
 20
1221630.495436335
 10
2586887.518997158
 20
1221633.366711477
 10
2586881.867997156
 20
1221640.493711055
  0
LWPOLYLINE
  5
16D
102
{ACAD_XDICTIONARY
360
16E
102
}
330
70
100
AcDbEntity
  8
e311_bruecken
100
AcDbPolyline
 90
       11
 70
     1
 43
0.0
 10
2586194.866997066
 20
1221213.964736065
 10
2586196.889997067
 20
1221213.510736091
 10
2586195.291997067
 20
1221206.401736513
 10
2586202.34699707
 20
1221195.881737117
 10
2586208.917997071
 20
1221194.743737188
 10
2586209.460997071
 20
1221194.649737193
 10
2586209.102997072
 20
1221192.523737316
 10
2586208.537997072
 20
1221192.614737311
 10
2586208.558997071
 20
1221192.744737305
 10
2586201.15499707
 20
1221194.02673723
 10
2586193.088997067
 20
1221206.05473653
  0
LWPOLYLINE
  5
170
102
{ACAD_XDICTIONARY
360
171
102
}
330
70
100
AcDbEntity
  8
e311_bruecken
100
AcDbPolyline
 90
        4
 70
     1
 43
0.0
 10
2586539.980996851
 20
1223389.833609086
 10
2586545.750996851
 20
1223393.273608887
 10
2586546.524996852
 20
1223391.505608989
 10
2586540.040996851
 20
1223387.640609216
  0
LWPOLYLINE
  5
173
102
{ACAD_XDICTIONARY
360
174
102
}
330
70
100
AcDbEntity
  8
e311_bruecken
100
AcDbPolyline
 90
        4
 70
     1
 43
0.0
 10
2586476.617996826
 20
1223461.182604945
 10
2586487.730996828
 20
1223470.200604422
 10
2586488.836996828
 20
1223468.842604496
 10
2586477.723996826
 20
1223459.82460502
  0
ENDSEC
  0
SECTION
  2
OBJECTS
  0
DICTIONARY
  5
C
330
0
100
AcDbDictionary
281
     1
  3
ACAD_COLOR
350
63
  3
ACAD_DETAILVIEWSTYLE
350
6A
  3
ACAD_GROUP
350
D
  3
ACAD_LAYOUT
350
62
  3
ACAD_MATERIAL
350
10
  3
ACAD_MLEADERSTYLE
350
66
  3
ACAD_MLINESTYLE
350
5F
  3
ACAD_PLOTSETTINGS
350
61
  3
ACAD_PLOTSTYLENAME
350
E
  3
ACAD_SCALELIST
350
42
  3
ACAD_SECTIONVIEWSTYLE
350
68
  3
ACAD_TABLESTYLE
350
64
  3
ACAD_VISUALSTYLE
350
29
  3
ACDB_RECOMPOSE_DATA
350
17E
  3
AcDbVariableDictionary
350
176
  3
IrdDscDictionary
350
7A
  0
DICTIONARY
  5
84
330
83
100
AcDbDictionary
280
     1
281
     1
  3
*A1
360
85
  0
DICTIONARY
  5
87
330
86
100
AcDbDictionary
280
     1
281
     1
  3
*A1
360
88
  0
DICTIONARY
  5
8A
330
89
100
AcDbDictionary
280
     1
281
     1
  3
*A1
360
8B
  0
DICTIONARY
  5
8D
330
8C
100
AcDbDictionary
280
     1
281
     1
  3
*A1
360
8E
  0
DICTIONARY
  5
90
330
8F
100
AcDbDictionary
280
     1
281
     1
  3
*A1
360
91
  0
DICTIONARY
  5
93
330
92
100
AcDbDictionary
280
     1
281
     1
  3
*A1
360
94
  0
DICTIONARY
  5
96
330
95
100
AcDbDictionary
280
     1
281
     1
  3
*A1
360
97
  0
DICTIONARY
  5
99
330
98
100
AcDbDictionary
280
     1
281
     1
  3
*A1
360
9A
  0
DICTIONARY
  5
9C
330
9B
100
AcDbDictionary
280
     1
281
     1
  3
*A1
360
9D
  0
DICTIONARY
  5
9F
330
9E
100
AcDbDictionary
280
     1
281
     1
  3
*A1
360
A0
  0
DICTIONARY
  5
A2
330
A1
100
AcDbDictionary
280
     1
281
     1
  3
*A1
360
A3
  0
DICTIONARY
  5
A5
330
A4
100
AcDbDictionary
280
     1
281
     1
  3
*A1
360
A6
  0
DICTIONARY
  5
A8
330
A7
100
AcDbDictionary
280
     1
281
     1
  3
*A1
360
A9
  0
DICTIONARY
  5
AB
330
AA
100
AcDbDictionary
280
     1
281
     1
  3
*A1
360
AC
  0
DICTIONARY
  5
AE
330
AD
100
AcDbDictionary
280
     1
281
     1
  3
*A1
360
AF
  0
DICTIONARY
  5
B1
330
B0
100
AcDbDictionary
280
     1
281
     1
  3
*A1
360
B2
  0
DICTIONARY
  5
B4
330
B3
100
AcDbDictionary
280
     1
281
     1
  3
*A1
360
B5
  0
DICTIONARY
  5
B7
330
B6
100
AcDbDictionary
280
     1
281
     1
  3
*A1
360
B8
  0
DICTIONARY
  5
BA
330
B9
100
AcDbDictionary
280
     1
281
     1
  3
*A1
360
BB
  0
DICTIONARY
  5
BD
330
BC
100
AcDbDictionary
280
     1
281
     1
  3
*A1
360
BE
  0
DICTIONARY
  5
C0
330
BF
100
AcDbDictionary
280
     1
281
     1
  3
*A1
360
C1
  0
DICTIONARY
  5
C3
330
C2
100
AcDbDictionary
280
     1
281
     1
  3
*A1
360
C4
  0
DICTIONARY
  5
C6
330
C5
100
AcDbDictionary
280
     1
281
     1
  3
*A1
360
C7
  0
DICTIONARY
  5
C9
330
C8
100
AcDbDictionary
280
     1
281
     1
  3
*A1
360
CA
  0
DICTIONARY
  5
CC
330
CB
100
AcDbDictionary
280
     1
281
     1
  3
*A1
360
CD
  0
DICTIONARY
  5
CF
330
CE
100
AcDbDictionary
280
     1
281
     1
  3
*A1
360
D0
  0
DICTIONARY
  5
D2
330
D1
100
AcDbDictionary
280
     1
281
     1
  3
*A1
360
D3
  0
DICTIONARY
  5
D5
330
D4
100
AcDbDictionary
280
     1
281
     1
  3
*A1
360
D6
  0
DICTIONARY
  5
D8
330
D7
100
AcDbDictionary
280
     1
281
     1
  3
*A1
360
D9
  0
DICTIONARY
  5
DB
330
DA
100
AcDbDictionary
280
     1
281
     1
  3
*A1
360
DC
  0
DICTIONARY
  5
DE
330
DD
100
AcDbDictionary
280
     1
281
     1
  3
*A1
360
DF
  0
DICTIONARY
  5
E1
330
E0
100
AcDbDictionary
280
     1
281
     1
  3
*A1
360
E2
  0
DICTIONARY
  5
E4
330
E3
100
AcDbDictionary
280
     1
281
     1
  3
*A1
360
E5
  0
DICTIONARY
  5
E7
330
E6
100
AcDbDictionary
280
     1
281
     1
  3
*A1
360
E8
  0
DICTIONARY
  5
EA
330
E9
100
AcDbDictionary
280
     1
281
     1
  3
*A1
360
EB
  0
DICTIONARY
  5
ED
330
EC
100
AcDbDictionary
280
     1
281
     1
  3
*A1
360
EE
  0
DICTIONARY
  5
F0
330
EF
100
AcDbDictionary
280
     1
281
     1
  3
*A1
360
F1
  0
DICTIONARY
  5
F3
330
F2
100
AcDbDictionary
280
     1
281
     1
  3
*A1
360
F4
  0
DICTIONARY
  5
F6
330
F5
100
AcDbDictionary
280
     1
281
     1
  3
*A1
360
F7
  0
DICTIONARY
  5
F9
330
F8
100
AcDbDictionary
280
     1
281
     1
  3
*A1
360
FA
  0
DICTIONARY
  5
FC
330
FB
100
AcDbDictionary
280
     1
281
     1
  3
*A1
360
FD
  0
DICTIONARY
  5
FF
330
FE
100
AcDbDictionary
280
     1
281
     1
  3
*A1
360
100
  0
DICTIONARY
  5
102
330
101
100
AcDbDictionary
280
     1
281
     1
  3
*A1
360
103
  0
DICTIONARY
  5
105
330
104
100
AcDbDictionary
280
     1
281
     1
  3
*A1
360
106
  0
DICTIONARY
  5
108
330
107
100
AcDbDictionary
280
     1
281
     1
  3
*A1
360
109
  0
DICTIONARY
  5
10B
330
10A
100
AcDbDictionary
280
     1
281
     1
  3
*A1
360
10C
  0
DICTIONARY
  5
10E
330
10D
100
AcDbDictionary
280
     1
281
     1
  3
*A1
360
10F
  0
DICTIONARY
  5
111
330
110
100
AcDbDictionary
280
     1
281
     1
  3
*A1
360
112
  0
DICTIONARY
  5
114
330
113
100
AcDbDictionary
280
     1
281
     1
  3
*A1
360
115
  0
DICTIONARY
  5
117
330
116
100
AcDbDictionary
280
     1
281
     1
  3
*A1
360
118
  0
DICTIONARY
  5
11A
330
119
100
AcDbDictionary
280
     1
281
     1
  3
*A1
360
11B
  0
DICTIONARY
  5
11D
330
11C
100
AcDbDictionary
280
     1
281
     1
  3
*A1
360
11E
  0
DICTIONARY
  5
120
330
11F
100
AcDbDictionary
280
     1
281
     1
  3
*A1
360
121
  0
DICTIONARY
  5
123
330
122
100
AcDbDictionary
280
     1
281
     1
  3
*A1
360
124
  0
DICTIONARY
  5
126
330
125
100
AcDbDictionary
280
     1
281
     1
  3
*A1
360
127
  0
DICTIONARY
  5
129
330
128
100
AcDbDictionary
280
     1
281
     1
  3
*A1
360
12A
  0
DICTIONARY
  5
12C
330
12B
100
AcDbDictionary
280
     1
281
     1
  3
*A1
360
12D
  0
DICTIONARY
  5
12F
330
12E
100
AcDbDictionary
280
     1
281
     1
  3
*A1
360
130
  0
DICTIONARY
  5
132
330
131
100
AcDbDictionary
280
     1
281
     1
  3
*A1
360
133
  0
DICTIONARY
  5
135
330
134
100
AcDbDictionary
280
     1
281
     1
  3
*A1
360
136
  0
DICTIONARY
  5
138
330
137
100
AcDbDictionary
280
     1
281
     1
  3
*A1
360
139
  0
DICTIONARY
  5
13B
330
13A
100
AcDbDictionary
280
     1
281
     1
  3
*A1
360
13C
  0
DICTIONARY
  5
13E
330
13D
100
AcDbDictionary
280
     1
281
     1
  3
*A1
360
13F
  0
DICTIONARY
  5
141
330
140
100
AcDbDictionary
280
     1
281
     1
  3
*A1
360
142
  0
DICTIONARY
  5
144
330
143
100
AcDbDictionary
280
     1
281
     1
  3
*A1
360
145
  0
DICTIONARY
  5
147
330
146
100
AcDbDictionary
280
     1
281
     1
  3
*A1
360
148
  0
DICTIONARY
  5
14A
330
149
100
AcDbDictionary
280
     1
281
     1
  3
*A1
360
14B
  0
DICTIONARY
  5
14D
330
14C
100
AcDbDictionary
280
     1
281
     1
  3
*A1
360
14E
  0
DICTIONARY
  5
150
330
14F
100
AcDbDictionary
280
     1
281
     1
  3
*A1
360
151
  0
DICTIONARY
  5
153
330
152
100
AcDbDictionary
280
     1
281
     1
  3
*A1
360
154
  0
DICTIONARY
  5
156
330
155
100
AcDbDictionary
280
     1
281
     1
  3
*A1
360
157
  0
DICTIONARY
  5
159
330
158
100
AcDbDictionary
280
     1
281
     1
  3
*A1
360
15A
  0
DICTIONARY
  5
15C
330
15B
100
AcDbDictionary
280
     1
281
     1
  3
*A1
360
15D
  0
DICTIONARY
  5
15F
330
15E
100
AcDbDictionary
280
     1
281
     1
  3
*A1
360
160
  0
DICTIONARY
  5
162
330
161
100
AcDbDictionary
280
     1
281
     1
  3
*A1
360
163
  0
DICTIONARY
  5
165
330
164
100
AcDbDictionary
280
     1
281
     1
  3
*A1
360
166
  0
DICTIONARY
  5
168
330
167
100
AcDbDictionary
280
     1
281
     1
  3
*A1
360
169
  0
DICTIONARY
  5
16B
330
16A
100
AcDbDictionary
280
     1
281
     1
  3
*A1
360
16C
  0
DICTIONARY
  5
16E
330
16D
100
AcDbDictionary
280
     1
281
     1
  3
*A1
360
16F
  0
DICTIONARY
  5
171
330
170
100
AcDbDictionary
280
     1
281
     1
  3
*A1
360
172
  0
DICTIONARY
  5
174
330
173
100
AcDbDictionary
280
     1
281
     1
  3
*A1
360
175
  0
DICTIONARY
  5
63
102
{ACAD_REACTORS
330
C
102
}
330
C
100
AcDbDictionary
281
     1
  0
DICTIONARY
  5
6A
102
{ACAD_REACTORS
330
C
102
}
330
C
100
AcDbDictionary
281
     1
  3
Imperial24
350
6B
  0
DICTIONARY
  5
D
102
{ACAD_REACTORS
330
C
102
}
330
C
100
AcDbDictionary
281
     1
  0
DICTIONARY
  5
62
102
{ACAD_REACTORS
330
C
102
}
330
C
100
AcDbDictionary
281
     1
  3
Layout1
350
6F
  3
Layout2
350
77
  3
Model
350
73
  0
DICTIONARY
  5
10
102
{ACAD_REACTORS
330
C
102
}
330
C
100
AcDbDictionary
281
     1
  3
ByBlock
350
19
  3
ByLayer
350
11
  3
Global
350
21
  0
DICTIONARY
  5
66
102
{ACAD_REACTORS
330
C
102
}
330
C
100
AcDbDictionary
281
     1
  3
Standard
350
67
  0
DICTIONARY
  5
5F
102
{ACAD_REACTORS
330
C
102
}
330
C
100
AcDbDictionary
281
     1
  3
Standard
350
60
  0
DICTIONARY
  5
61
102
{ACAD_REACTORS
330
C
102
}
330
C
100
AcDbDictionary
281
     1
  0
ACDBDICTIONARYWDFLT
  5
E
102
{ACAD_REACTORS
330
C
102
}
330
C
100
AcDbDictionary
281
     1
  3
Normal
350
F
100
AcDbDictionaryWithDefault
340
F
  0
DICTIONARY
  5
42
102
{ACAD_REACTORS
330
C
102
}
330
C
100
AcDbDictionary
281
     1
  3
A0
350
43
  3
A1
350
44
  3
A2
350
45
  3
A3
350
46
  3
A4
350
47
  3
A5
350
48
  3
A6
350
49
  3
A7
350
4A
  3
A8
350
4B
  3
A9
350
4C
  3
B0
350
4D
  3
B1
350
4E
  3
B2
350
4F
  3
B3
350
50
  3
B4
350
51
  3
B5
350
52
  3
B6
350
53
  0
DICTIONARY
  5
68
102
{ACAD_REACTORS
330
C
102
}
330
C
100
AcDbDictionary
281
     1
  3
Imperial24
350
69
  0
DICTIONARY
  5
64
102
{ACAD_REACTORS
330
C
102
}
330
C
100
AcDbDictionary
281
     1
  3
Standard
350
65
  0
DICTIONARY
  5
29
102
{ACAD_REACTORS
330
C
102
}
330
C
100
AcDbDictionary
281
     1
  3
2dWireframe
350
2F
  3
Basic
350
2E
  3
Brighten
350
35
  3
ColorChange
350
39
  3
Conceptual
350
32
  3
Dim
350
34
  3
EdgeColorOff
350
41
  3
Facepattern
350
38
  3
Flat
350
2A
  3
FlatWithEdges
350
2B
  3
Gouraud
350
2C
  3
GouraudWithEdges
350
2D
  3
Hidden
350
31
  3
JitterOff
350
3F
  3
Linepattern
350
37
  3
OverhangOff
350
40
  3
Realistic
350
33
  3
Shaded
350
3E
  3
Shaded with edges
350
3D
  3
Shades of Gray
350
3A
  3
Sketchy
350
3B
  3
Thicken
350
36
  3
Wireframe
350
30
  3
X-Ray
350
3C
  0
XRECORD
  5
17E
102
{ACAD_REACTORS
330
C
102
}
330
C
100
AcDbXrecord
280
     1
 90
        1
330
65
  0
DICTIONARY
  5
176
102
{ACAD_REACTORS
330
C
102
}
330
C
100
AcDbDictionary
281
     1
  3
CANNOSCALE
350
17B
  3
CMLEADERSTYLE
350
178
  3
CTABLESTYLE
350
177
  3
CVIEWDETAILSTYLE
350
179
  3
CVIEWSECTIONSTYLE
350
17A
  0
IRD_DSC_DICT
  5
7A
102
{ACAD_REACTORS
330
C
102
}
330
C
100
AcDbDictionary
281
     1
  3
*A1
350
7B
  3
*A2
350
7C
  3
*A3
350
7D
  3
*A4
350
7E
  3
*A5
350
7F
100
CIrdDscDict
1040
0.0
  0
IRD_OBJ_RECORD
  5
85
102
{ACAD_REACTORS
330
84
102
}
330
84
100
CIrdBaseRecord
1070
   516
1071
        1
1004
01000000000000488F403100000042007200FC0067006700730074007200610073007300650000005300420042000000530042004200000031003900350030000000300031002E00300036002E0032003000320034000000
100
CIrdObjRecord
330
7F
  0
IRD_OBJ_RECORD
  5
88
102
{ACAD_REACTORS
330
87
102
}
330
87
100
CIrdBaseRecord
1070
   516
1071
        1
1004
01000000000000508F403200000042006C0075006D0065006E007200610069006E0000005300420042000000530042004200000032003000310034000000300031002E00300036002E0032003000320034000000
100
CIrdObjRecord
330
7F
  0
IRD_OBJ_RECORD
  5
8B
102
{ACAD_REACTORS
330
8A
102
}
330
8A
100
CIrdBaseRecord
1070
   516
1071
        1
1004
01000000000000588F403300000050006100730073006500720065006C006C0065006E0077006500670000005300420042000000530042004200000031003900320037000000300031002E00300036002E0032003000320034000000
100
CIrdObjRecord
330
7F
  0
IRD_OBJ_RECORD
  5
8E
102
{ACAD_REACTORS
330
8D
102
}
330
8D
100
CIrdBaseRecord
1070
   516
1071
        1
1004
01000000000000608F4034000000570061006C0064007200610069006E00730074007200610073007300650000005300420042000000530042004200000031003900320037000000300031002E00300036002E0032003000320034000000
100
CIrdObjRecord
330
7F
  0
IRD_OBJ_RECORD
  5
91
102
{ACAD_REACTORS
330
90
102
}
330
90
100
CIrdBaseRecord
1070
   516
1071
        1
1004
01000000000000688F40350000004D0075007200740065006E00730074007200610073007300650000004D00610064007200650074007300630068002D00530063006800FC007300730000005300740061006400740020004200690065006C00000031003900320036002C00200031003900390032000000300031002E0030
1004
0036002E0032003000320034000000
100
CIrdObjRecord
330
7F
  0
IRD_OBJ_RECORD
  5
94
102
{ACAD_REACTORS
330
93
102
}
330
93
100
CIrdBaseRecord
1070
   516
1071
        1
1004
01000000000000708F40360000005A0075006B0075006E0066007400730074007200610073007300650000004D00610064007200650074007300630068002D00530063006800FC007300730000005300740061006400740020004200690065006C0000003F000000300031002E00300036002E0032003000320034000000
100
CIrdObjRecord
330
7F
  0
IRD_OBJ_RECORD
  5
97
102
{ACAD_REACTORS
330
96
102
}
330
96
100
CIrdBaseRecord
1070
   516
1071
        1
1004
01000000000000788F40370000005A0065006E007400720061006C00730074007200610073007300650000004D00610064007200650074007300630068002D00530063006800FC007300730000005300740061006400740020004200690065006C00000031003900320031000000300031002E00300036002E003200300032
1004
0034000000
100
CIrdObjRecord
330
7F
  0
IRD_OBJ_RECORD
  5
9A
102
{ACAD_REACTORS
330
99
102
}
330
99
100
CIrdBaseRecord
1070
   516
1071
        1
1004
01000000000000808F40380000004D0061007400740065006E00730074007200610073007300650000004D00610064007200650074007300630068002D00530063006800FC007300730000005300740061006400740020004200690065006C00000031003900390037000000300031002E00300036002E0032003000320034
1004
000000
100
CIrdObjRecord
330
7F
  0
IRD_OBJ_RECORD
  5
9D
102
{ACAD_REACTORS
330
9C
102
}
330
9C
100
CIrdBaseRecord
1070
   516
1071
        1
1004
01000000000000888F40390000004E00650075006D00610072006B007400730074007200610073007300650000004D00610064007200650074007300630068002D00530063006800FC007300730000005300740061006400740020004200690065006C00000032003000300032000000300031002E00300036002E00320030
1004
00320034000000
100
CIrdObjRecord
330
7F
  0
IRD_OBJ_RECORD
  5
A0
102
{ACAD_REACTORS
330
9F
102
}
330
9F
100
CIrdBaseRecord
1070
   516
1071
        1
1004
01000000000000908F403100300000004A00750072006100730074007200610073007300650000004D00610064007200650074007300630068002D00530063006800FC007300730000005300740061006400740020004200690065006C00000032003000310033000000300031002E00300036002E00320030003200340000
1004
00
100
CIrdObjRecord
330
7F
  0
IRD_OBJ_RECORD
  5
A3
102
{ACAD_REACTORS
330
A2
102
}
330
A2
100
CIrdBaseRecord
1070
   516
1071
        1
1004
01000000000000988F4031003100000048006F006C0075006E0064006500720077006500670000004D00610064007200650074007300630068002D00530063006800FC007300730000005300740061006400740020004200690065006C00000031003900330033000000300031002E00300036002E00320030003200340000
1004
00
100
CIrdObjRecord
330
7F
  0
IRD_OBJ_RECORD
  5
A6
102
{ACAD_REACTORS
330
A5
102
}
330
A5
100
CIrdBaseRecord
1070
   516
1071
        1
1004
01000000000000988F4031003100000048006F006C0075006E0064006500720077006500670000004D00610064007200650074007300630068002D00530063006800FC007300730000005300740061006400740020004200690065006C00000031003900330033000000300031002E00300036002E00320030003200340000
1004
00
100
CIrdObjRecord
330
7F
  0
IRD_OBJ_RECORD
  5
A9
102
{ACAD_REACTORS
330
A8
102
}
330
A8
100
CIrdBaseRecord
1070
   516
1071
        1
1004
01000000000000A08F4031003200000048006F006C0075006E0064006500720077006500670000004D00610064007200650074007300630068002D00530063006800FC007300730000005300740061006400740020004200690065006C0000000000300031002E00300036002E0032003000320034000000
100
CIrdObjRecord
330
7F
  0
IRD_OBJ_RECORD
  5
AC
102
{ACAD_REACTORS
330
AB
102
}
330
AB
100
CIrdBaseRecord
1070
   516
1071
        1
1004
01000000000000A88F4031003300000053007400720061006E00640062006100640000005A00690068006C0000005300740061006400740020004200690065006C00000031003900330032000000300031002E00300036002E0032003000320034000000
100
CIrdObjRecord
330
7F
  0
IRD_OBJ_RECORD
  5
AF
102
{ACAD_REACTORS
330
AE
102
}
330
AE
100
CIrdBaseRecord
1070
   516
1071
        1
1004
01000000000000B08F4031003400000055006E0074006500720065007200200051007500610069000000530063006800FC00730073002D004B0061006E0061006C0000005300740061006400740020004200690065006C0000003F000000300031002E00300036002E0032003000320034000000
100
CIrdObjRecord
330
7F
  0
IRD_OBJ_RECORD
  5
B2
102
{ACAD_REACTORS
330
B1
102
}
330
B1
100
CIrdBaseRecord
1070
   516
1071
        1
1004
01000000000000B88F403100350000004E0065007000740075006E0000004E0065007000740075006E002D0048006100660065006E0000005300740061006400740020004200690065006C0000003F000000300031002E00300036002E0032003000320034000000
100
CIrdObjRecord
330
7F
  0
IRD_OBJ_RECORD
  5
B5
102
{ACAD_REACTORS
330
B4
102
}
330
B4
100
CIrdBaseRecord
1070
   516
1071
        1
1004
01000000000000C08F403100360000004C00E4006E00640074006500730074007200610073007300650020004F00730074000000530063006800FC00730073002D004B0061006E0061006C0000005300740061006400740020004200690065006C0000003F000000300031002E00300036002E0032003000320034000000
100
CIrdObjRecord
330
7F
  0
IRD_OBJ_RECORD
  5
B8
102
{ACAD_REACTORS
330
B7
102
}
330
B7
100
CIrdBaseRecord
1070
   516
1071
        1
1004
01000000000000C88F40310036002000410000004C00E4006E006400740065007300740072006100730073006500200057006500730074000000530063006800FC00730073002D004B0061006E0061006C0000005300740061006400740020004200690065006C00000031003900360036000000300031002E00300036002E
1004
0032003000320034000000
100
CIrdObjRecord
330
7F
  0
IRD_OBJ_RECORD
  5
BB
102
{ACAD_REACTORS
330
BA
102
}
330
BA
100
CIrdBaseRecord
1070
   516
1071
        1
1004
01000000000000D08F40310037000000440061006D006D007700650067000000530063006800FC00730073002D004B0061006E0061006C0000005300740061006400740020004200690065006C00000032003000300032000000300031002E00300036002E0032003000320034000000
100
CIrdObjRecord
330
7F
  0
IRD_OBJ_RECORD
  5
BE
102
{ACAD_REACTORS
330
BD
102
}
330
BD
100
CIrdBaseRecord
1070
   516
1071
        1
1004
01000000000000D88F40310038000000560069006100640075006B00740073007400720061007300730065000000530063006800FC00730073002D004B0061006E0061006C0000005300740061006400740020004200690065006C00000032003000300037000000300031002E00300036002E0032003000320034000000
100
CIrdObjRecord
330
7F
  0
IRD_OBJ_RECORD
  5
C1
102
{ACAD_REACTORS
330
C0
102
}
330
C0
100
CIrdBaseRecord
1070
   516
1071
        1
1004
01000000000000E08F40310039000000530070006900740061006C0073007400720061007300730065000000530063006800FC00730073002D004B0061006E0061006C0000005300740061006400740020004200690065006C00000032003000300030000000300031002E00300036002E0032003000320034000000
100
CIrdObjRecord
330
7F
  0
IRD_OBJ_RECORD
  5
C4
102
{ACAD_REACTORS
330
C3
102
}
330
C3
100
CIrdBaseRecord
1070
   516
1071
        1
1004
01000000000000E88F403200300000004E006500750068006100750073002D0053007400720061007300730065000000530063006800FC00730073002D004B0061006E0061006C0000005300740061006400740020004200690065006C00000031003900350032000000300031002E00300036002E00320030003200340000
1004
00
100
CIrdObjRecord
330
7F
  0
IRD_OBJ_RECORD
  5
C7
102
{ACAD_REACTORS
330
C6
102
}
330
C6
100
CIrdBaseRecord
1070
   516
1071
        1
1004
01000000000000F08F403200310000005A0065006E007400720061006C0070006C00610074007A000000530063006800FC00730073002D004B0061006E0061006C0000005300740061006400740020004200690065006C00000031003800390030002C00200031003900300032000000300031002E00300036002E00320030
1004
00320034000000
100
CIrdObjRecord
330
7F
  0
IRD_OBJ_RECORD
  5
CA
102
{ACAD_REACTORS
330
C9
102
}
330
C9
100
CIrdBaseRecord
1070
   516
1071
        1
1004
01000000000000F88F403200320000004E00650075006D00610072006B00740073007400720061007300730065000000530063006800FC00730073002D004B0061006E0061006C0000005300740061006400740020004200690065006C00000031003900350032000000300031002E00300036002E00320030003200340000
1004
00
100
CIrdObjRecord
330
7F
  0
IRD_OBJ_RECORD
  5
CD
102
{ACAD_REACTORS
330
CC
102
}
330
CC
100
CIrdBaseRecord
1070
   516
1071
        1
1004
010000000000000090403200330000004A0075007200610073007400720061007300730065000000530063006800FC00730073002D004B0061006E0061006C0000005300740061006400740020004200690065006C00000032003000310035000000300031002E00300036002E0032003000320034000000
100
CIrdObjRecord
330
7F
  0
IRD_OBJ_RECORD
  5
D0
102
{ACAD_REACTORS
330
CF
102
}
330
CF
100
CIrdBaseRecord
1070
   516
1071
        1
1004
0100000000000004904032003400000042007500620065006E0062006500720067002D0053007400720061007300730065000000530063006800FC00730073002D004B0061006E0061006C0000005300740061006400740020004200690065006C0000003F000000300031002E00300036002E0032003000320034000000
100
CIrdObjRecord
330
7F
  0
IRD_OBJ_RECORD
  5
D3
102
{ACAD_REACTORS
330
D2
102
}
330
D2
100
CIrdBaseRecord
1070
   516
1071
        1
1004
010000000000000890403200350000004F00620065007200650072002000510075006100690000004D00610064007200650074007300630068002D00530063006800FC007300730000005300740061006400740020004200690065006C0020003F0000003F000000300031002E00300036002E0032003000320034000000
100
CIrdObjRecord
330
7F
  0
IRD_OBJ_RECORD
  5
D6
102
{ACAD_REACTORS
330
D5
102
}
330
D5
100
CIrdBaseRecord
1070
   516
1071
        1
1004
010000000000000C9040320035002000410000004F00620065007200650072002000510075006100690000004D00610064007200650074007300630068002D00530063006800FC007300730000005300420042000000310039003900370020003F000000300031002E00300036002E0032003000320034000000
100
CIrdObjRecord
330
7F
  0
IRD_OBJ_RECORD
  5
D9
102
{ACAD_REACTORS
330
D8
102
}
330
D8
100
CIrdBaseRecord
1070
   516
1071
        1
1004
0100000000000010904032003600000047006F00740074007300740061007400740073007400720061007300730065000000530063006800FC007300730000005300740061006400740020004200690065006C00000032003000300035000000300031002E00300036002E0032003000320034000000
100
CIrdObjRecord
330
7F
  0
IRD_OBJ_RECORD
  5
DC
102
{ACAD_REACTORS
330
DB
102
}
330
DB
100
CIrdBaseRecord
1070
   516
1071
        1
1004
0100000000000014904032003700000046006F00720065006C006C0065006E007700650067000000530063006800FC007300730000005300740061006400740020004200690065006C0000003F000000300031002E00300036002E0032003000320034000000
100
CIrdObjRecord
330
7F
  0
IRD_OBJ_RECORD
  5
DF
102
{ACAD_REACTORS
330
DE
102
}
330
DE
100
CIrdBaseRecord
1070
   516
1071
        1
1004
010000000000001890403200380000004D00FC0068006C00650073007400720061007300730065000000530063006800FC007300730000005300740061006400740020004200690065006C00000032003000300033002F0032003000300034000000300031002E00300036002E0032003000320034000000
100
CIrdObjRecord
330
7F
  0
IRD_OBJ_RECORD
  5
E2
102
{ACAD_REACTORS
330
E1
102
}
330
E1
100
CIrdBaseRecord
1070
   516
1071
        1
1004
010000000000002090403200390000004500690064006F006300680073007700650067000000530063006800FC007300730000005300740061006400740020004200690065006C00000032003000300032002F0032003000300033000000300031002E00300036002E0032003000320034000000
100
CIrdObjRecord
330
7F
  0
IRD_OBJ_RECORD
  5
E5
102
{ACAD_REACTORS
330
E4
102
}
330
E4
100
CIrdBaseRecord
1070
   516
1071
        1
1004
0100000000000024904033003000000053006F006C006F0074006800750072006E0073007400720061007300730065000000530063006800FC007300730000004B0061006E0074006F006E0020004200650072006E00000032003000300038002F0032003000300039000000300031002E00300036002E0032003000320034
1004
000000
100
CIrdObjRecord
330
7F
  0
IRD_OBJ_RECORD
  5
E8
102
{ACAD_REACTORS
330
E7
102
}
330
E7
100
CIrdBaseRecord
1070
   516
1071
        1
1004
010000000000002C9040330031000000540061007500620065006E006C006F00630068007300630068006C0075006300680074000000530063006800FC007300730000005300740061006400740020004200690065006C0000003F000000300031002E00300036002E0032003000320034000000
100
CIrdObjRecord
330
7F
  0
IRD_OBJ_RECORD
  5
EB
102
{ACAD_REACTORS
330
EA
102
}
330
EA
100
CIrdBaseRecord
1070
   516
1071
        1
1004
0100000000000030904033003200000055006E00740065007200650072002000510075006100690000004200690065006C002D00530063006800FC007300730000005300740061006400740020004200690065006C00000031003900380039000000300031002E00300036002E0032003000320034000000
100
CIrdObjRecord
330
7F
  0
IRD_OBJ_RECORD
  5
EE
102
{ACAD_REACTORS
330
ED
102
}
330
ED
100
CIrdBaseRecord
1070
   516
1071
        1
1004
01000000000000349040330033000000560069006100640075006B007400730074007200610073007300650000004200690065006C002D00530063006800FC007300730000005300740061006400740020004200690065006C00000032003000300037000000300031002E00300036002E0032003000320034000000
100
CIrdObjRecord
330
7F
  0
IRD_OBJ_RECORD
  5
F1
102
{ACAD_REACTORS
330
F0
102
}
330
F0
100
CIrdBaseRecord
1070
   516
1071
        1
1004
01000000000000389040330034000000530070006900740061006C00730074007200610073007300650000004200690065006C002D00530063006800FC007300730000005300740061006400740020004200690065006C00000032003000300035000000300031002E00300036002E0032003000320034000000
100
CIrdObjRecord
330
7F
  0
IRD_OBJ_RECORD
  5
F4
102
{ACAD_REACTORS
330
F3
102
}
330
F3
100
CIrdBaseRecord
1070
   516
1071
        1
1004
010000000000003C90403300350000004E006500750068006100750073002D00530074007200610073007300650000004200690065006C002D00530063006800FC007300730000005300740061006400740020004200690065006C003F0000003F000000300031002E00300036002E0032003000320034000000
100
CIrdObjRecord
330
7F
  0
IRD_OBJ_RECORD
  5
F7
102
{ACAD_REACTORS
330
F6
102
}
330
F6
100
CIrdBaseRecord
1070
   516
1071
        1
1004
010000000000004090403300360000005200FC007300630068006C006900730074007200610073007300650000004200690065006C002D00530063006800FC007300730000005300740061006400740020004200690065006C00000031003800380033000000300031002E00300036002E0032003000320034000000
100
CIrdObjRecord
330
7F
  0
IRD_OBJ_RECORD
  5
FA
102
{ACAD_REACTORS
330
F9
102
}
330
F9
100
CIrdBaseRecord
1070
   516
1071
        1
1004
010000000000004490403300370000004D00FC0068006C00650062007200FC0063006B00650000004200690065006C002D00530063006800FC007300730000005300740061006400740020004200690065006C000000730069006500680065002000420065006D00650072006B0075006E00670065006E000000300031002E
1004
00300036002E0032003000320034000000
100
CIrdObjRecord
330
7F
  0
IRD_OBJ_RECORD
  5
FD
102
{ACAD_REACTORS
330
FC
102
}
330
FC
100
CIrdBaseRecord
1070
   516
1071
        1
1004
010000000000004890403300380000004B0061006E0061006C006700610073007300650000004200690065006C002D00530063006800FC007300730000005300740061006400740020004200690065006C00000031003900310036002000650076002E002000C4006C007400650072000000300031002E00300036002E0032
1004
003000320034000000
100
CIrdObjRecord
330
7F
  0
IRD_OBJ_RECORD
  5
100
102
{ACAD_REACTORS
330
FF
102
}
330
FF
100
CIrdBaseRecord
1070
   516
1071
        1
1004
010000000000004C90403300390000004A00750072006100730074007200610073007300650000004200690065006C002D00530063006800FC007300730000005300740061006400740020004200690065006C00000031003900390034000000300031002E00300036002E0032003000320034000000
100
CIrdObjRecord
330
7F
  0
IRD_OBJ_RECORD
  5
103
102
{ACAD_REACTORS
330
102
102
}
330
102
100
CIrdBaseRecord
1070
   516
1071
        1
1004
010000000000005090403400300000004700F60075006600660069002D00530074007200610073007300650000004200690065006C002D00530063006800FC007300730000005300740061006400740020004200690065006C00000031003900310035000000300031002E00300036002E0032003000320034000000
100
CIrdObjRecord
330
7F
  0
IRD_OBJ_RECORD
  5
106
102
{ACAD_REACTORS
330
105
102
}
330
105
100
CIrdBaseRecord
1070
   516
1071
        1
1004
0100000000000054904034003100000042007500620065006E0062006500720067002D00530074007200610073007300650000004200690065006C002D00530063006800FC007300730000005300740061006400740020004200690065006C00000031003900390030000000300031002E00300036002E0032003000320034
1004
000000
100
CIrdObjRecord
330
7F
  0
IRD_OBJ_RECORD
  5
109
102
{ACAD_REACTORS
330
108
102
}
330
108
100
CIrdBaseRecord
1070
   516
1071
        1
1004
010000000000005890403400320000004800650069006C006D0061006E006E002D00530074007200610073007300650000004200690065006C002D00530063006800FC007300730000005300740061006400740020004200690065006C00000031003900340032000000300031002E00300036002E00320030003200340000
1004
00
100
CIrdObjRecord
330
7F
  0
IRD_OBJ_RECORD
  5
10C
102
{ACAD_REACTORS
330
10B
102
}
330
10B
100
CIrdBaseRecord
1070
   516
1071
        1
1004
010000000000005C904034003300000046007200650069006500730074007200610073007300650000004200690065006C002D00530063006800FC007300730000005300740061006400740020004200690065006C00000031003900350030000000300031002E00300036002E0032003000320034000000
100
CIrdObjRecord
330
7F
  0
IRD_OBJ_RECORD
  5
10F
102
{ACAD_REACTORS
330
10E
102
}
330
10E
100
CIrdBaseRecord
1070
   516
1071
        1
1004
010000000000006090403400340000004400750066006F00750072002D00530074007200610073007300650000004200690065006C002D00530063006800FC007300730000005300740061006400740020004200690065006C00000031003900310032000000300031002E00300036002E0032003000320034000000
100
CIrdObjRecord
330
7F
  0
IRD_OBJ_RECORD
  5
112
102
{ACAD_REACTORS
330
111
102
}
330
111
100
CIrdBaseRecord
1070
   516
1071
        1
1004
010000000000006490403400350000004E0065006C006B0065006E00730074007200610073007300650000004200690065006C002D00530063006800FC007300730000005300740061006400740020004200690065006C00000031003900330034000000300031002E00300036002E0032003000320034000000
100
CIrdObjRecord
330
7F
  0
IRD_OBJ_RECORD
  5
115
102
{ACAD_REACTORS
330
114
102
}
330
114
100
CIrdBaseRecord
1070
   516
1071
        1
1004
0100000000000068904034003600000053007400E4006D00700066006C0069002D00530074007200610073007300650000004200690065006C002D00530063006800FC007300730000005300740061006400740020004200690065006C00000031003900340039000000300031002E00300036002E00320030003200340000
1004
00
100
CIrdObjRecord
330
7F
  0
IRD_OBJ_RECORD
  5
118
102
{ACAD_REACTORS
330
117
102
}
330
117
100
CIrdBaseRecord
1070
   516
1071
        1
1004
010000000000006C904034003700000041006C00700065006E007300740072006100730073006500000053004200420000005300740061006400740020004200690065006C00000031003900300033000000300031002E00300036002E0032003000320034000000
100
CIrdObjRecord
330
7F
  0
IRD_OBJ_RECORD
  5
11B
102
{ACAD_REACTORS
330
11A
102
}
330
11A
100
CIrdBaseRecord
1070
   516
1071
        1
1004
0100000000000070904034003800000052006F0062006500720074002D00570065006700000053004200420000005300740061006400740020004200690065006C0020002F0020005300420042000000730069006500680065002000420065006D00650072006B0075006E00670065006E000000300031002E00300036002E
1004
0032003000320034000000
100
CIrdObjRecord
330
7F
  0
IRD_OBJ_RECORD
  5
11E
102
{ACAD_REACTORS
330
11D
102
}
330
11D
100
CIrdBaseRecord
1070
   516
1071
        1
1004
010000000000007490403400390000004800650069006400650077006500670000004100750074006F00730074007200610073007300650000004B0061006E0074006F006E004200650072006E0000003F000000300031002E00300036002E0032003000320034000000
100
CIrdObjRecord
330
7F
  0
IRD_OBJ_RECORD
  5
121
102
{ACAD_REACTORS
330
120
102
}
330
120
100
CIrdBaseRecord
1070
   516
1071
        1
1004
01000000000000789040350030000000470079006D006E0061007300690075006D000000530063006800FC00730073002D004B0061006E0061006C0000005300740061006400740020004200690065006C00000031003900380030000000300031002E00300036002E0032003000320034000000
100
CIrdObjRecord
330
7F
  0
IRD_OBJ_RECORD
  5
124
102
{ACAD_REACTORS
330
123
102
}
330
123
100
CIrdBaseRecord
1070
   516
1071
        1
1004
010000000000007C90403500310000005300650065006200750063006800740000004E0065007000740075006E002D0048006100660065006E0000005300740061006400740020004200690065006C00000031003900380030000000300031002E00300036002E0032003000320034000000
100
CIrdObjRecord
330
7F
  0
IRD_OBJ_RECORD
  5
127
102
{ACAD_REACTORS
330
126
102
}
330
126
100
CIrdBaseRecord
1070
   516
1071
        1
1004
010000000000008090403500320000005300650065006200750063006800740000004E0065007000740075006E002D0048006100660065006E0000005300740061006400740020004200690065006C00000031003900380030000000300031002E00300036002E0032003000320034000000
100
CIrdObjRecord
330
7F
  0
IRD_OBJ_RECORD
  5
12A
102
{ACAD_REACTORS
330
129
102
}
330
129
100
CIrdBaseRecord
1070
   516
1071
        1
1004
01000000000000849040350033000000460061006C006200720069006E00670065006E000000530042004200000053004200420000003F000000300031002E00300036002E0032003000320034000000
100
CIrdObjRecord
330
7F
  0
IRD_OBJ_RECORD
  5
12D
102
{ACAD_REACTORS
330
12C
102
}
330
12C
100
CIrdBaseRecord
1070
   516
1071
        1
1004
010000000000008C9040350035000000530063006800FC007300730069006E00730065006C000000530074006500620065006C00650072002D004B0061006E0061006C0000005300740061006400740020004200690065006C00000032003000310036000000300031002E00300036002E0032003000320034000000
100
CIrdObjRecord
330
7F
  0
IRD_OBJ_RECORD
  5
130
102
{ACAD_REACTORS
330
12F
102
}
330
12F
100
CIrdBaseRecord
1070
   516
1071
        1
1004
01000000000000909040350036000000530063006800FC007300730069006E00730065006C000000530074006500620065006C00650072002D004B0061006E0061006C0000005300740061006400740020004200690065006C00000032003000310036000000300031002E00300036002E0032003000320034000000
100
CIrdObjRecord
330
7F
  0
IRD_OBJ_RECORD
  5
133
102
{ACAD_REACTORS
330
132
102
}
330
132
100
CIrdBaseRecord
1070
   516
1071
        1
1004
01000000000000989040350038000000420065007200670068006100750073007700650067000000530042004200000053004200420000003F000000300031002E00300036002E0032003000320034000000
100
CIrdObjRecord
330
7F
  0
IRD_OBJ_RECORD
  5
136
102
{ACAD_REACTORS
330
135
102
}
330
135
100
CIrdBaseRecord
1070
   516
1071
        1
1004
010000000000009C90403500390000005300E40067006500660065006C0064007700650067000000530063006800FC007300730020002F0020005700650072006B006B0061006E0061006C002000520065006E0066006500720000005300740061006400740020004200690065006C00000031003900380039000000300031
1004
002E00300036002E0032003000320034000000
100
CIrdObjRecord
330
7F
  0
IRD_OBJ_RECORD
  5
139
102
{ACAD_REACTORS
330
138
102
}
330
138
100
CIrdBaseRecord
1070
   516
1071
        1
1004
01000000000000A090403600300000004D0069007400740065006C00730074007200610073007300650000004200690065006C002D00530063006800FC007300730000005300740061006400740020004200690065006C0000003F000000300031002E00300036002E0032003000320034000000
100
CIrdObjRecord
330
7F
  0
IRD_OBJ_RECORD
  5
13C
102
{ACAD_REACTORS
330
13B
102
}
330
13B
100
CIrdBaseRecord
1070
   516
1071
        1
1004
01000000000000A49040360031000000530063006800FC007300730069006E00730065006C00000053007400650062006C00650072002D004B0061006E0061006C0000005300740061006400740020004200690065006C00000032003000310036000000300031002E00300036002E0032003000320034000000
100
CIrdObjRecord
330
7F
  0
IRD_OBJ_RECORD
  5
13F
102
{ACAD_REACTORS
330
13E
102
}
330
13E
100
CIrdBaseRecord
1070
   516
1071
        1
1004
01000000000000A89040360032000000530063006800FC007300730069006E00730065006C00000053007400650062006C00650072002D004B0061006E0061006C0000005300740061006400740020004200690065006C00000031003900370039000000300031002E00300036002E0032003000320034000000
100
CIrdObjRecord
330
7F
  0
IRD_OBJ_RECORD
  5
142
102
{ACAD_REACTORS
330
141
102
}
330
141
100
CIrdBaseRecord
1070
   516
1071
        1
1004
01000000000000AC90403600330000004F00620065007200650072002000510075006100690020004E006F00720064002F005300FC0064000000530063006800FC00730073002D004B0061006E0061006C0000005300740061006400740020004200690065006C00000031003900390038000000300031002E00300036002E
1004
0032003000320034000000
100
CIrdObjRecord
330
7F
  0
IRD_OBJ_RECORD
  5
145
102
{ACAD_REACTORS
330
144
102
}
330
144
100
CIrdBaseRecord
1070
   516
1071
        1
1004
01000000000000B09040360034000000470061007200740065006E0073007400720061007300730065000000530063006800FC00730073002D004B0061006E0061006C0000005300740061006400740020004200690065006C00000031003900390039000000300031002E00300036002E0032003000320034000000
100
CIrdObjRecord
330
7F
  0
IRD_OBJ_RECORD
  5
148
102
{ACAD_REACTORS
330
147
102
}
330
147
100
CIrdBaseRecord
1070
   516
1071
        1
1004
01000000000000B49040360035000000530063006800FC0074007A0065006E002D002F004200720075006E006E002D002F00200055006E007400650072002D002F004700650072006200650072006700610073007300650000005200F6006D00650072007100750065006C006C006500000053007400610064007400200042
1004
00690065006C0020002F00200050007200690076006100740000003F000000300031002E00300036002E0032003000320034000000
100
CIrdObjRecord
330
7F
  0
IRD_OBJ_RECORD
  5
14B
102
{ACAD_REACTORS
330
14A
102
}
330
14A
100
CIrdBaseRecord
1070
   516
1071
        1
1004
01000000000000B8904036003600000053007400720061006E00640062006F00640065006E000000530063006800FC00730073002D004B0061006E0061006C0000005300740061006400740020004200690065006C00000032003000300031000000300031002E00300036002E0032003000320034000000
100
CIrdObjRecord
330
7F
  0
IRD_OBJ_RECORD
  5
14E
102
{ACAD_REACTORS
330
14D
102
}
330
14D
100
CIrdBaseRecord
1070
   516
1071
        1
1004
01000000000000BC9040360037000000520065006E006600650072002D0041007200650061006C000000530063006800FC007300730000005300740061006400740020004200690065006C00000032003000300031000000300031002E00300036002E0032003000320034000000
100
CIrdObjRecord
330
7F
  0
IRD_OBJ_RECORD
  5
151
102
{ACAD_REACTORS
330
150
102
}
330
150
100
CIrdBaseRecord
1070
   516
1071
        1
1004
01000000000000C09040360038000000520065006E006600650072002D0041007200650061006C00000049006E0064007500730074007200690065002D004B0061006E0061006C0000005300740061006400740020004200690065006C0000003F000000300031002E00300036002E0032003000320034000000
100
CIrdObjRecord
330
7F
  0
IRD_OBJ_RECORD
  5
154
102
{ACAD_REACTORS
330
153
102
}
330
153
100
CIrdBaseRecord
1070
   516
1071
        1
1004
01000000000000C49040360039000000460065006C00640077006500670020006900200064006500720020004200FC00730063006800650000004C0065007500670065006E00650000005300740061006400740020004200690065006C00000031003900390039000000300031002E00300036002E00320030003200340000
1004
00
100
CIrdObjRecord
330
7F
  0
IRD_OBJ_RECORD
  5
157
102
{ACAD_REACTORS
330
156
102
}
330
156
100
CIrdBaseRecord
1070
   516
1071
        1
1004
01000000000000C8904037003000200041000000540061007500620065006E006C006F00630068007300630068006C0075006300680074000000530063006800FC007300730000005300740061006400740020004200690065006C0000003F000000300031002E00300036002E0032003000320034000000
100
CIrdObjRecord
330
7F
  0
IRD_OBJ_RECORD
  5
15A
102
{ACAD_REACTORS
330
159
102
}
330
159
100
CIrdBaseRecord
1070
   516
1071
        1
1004
01000000000000CC904037003000200042000000540061007500620065006E006C006F00630068007300630068006C0075006300680074000000530063006800FC007300730000005300740061006400740020004200690065006C0000003F000000300031002E00300036002E0032003000320034000000
100
CIrdObjRecord
330
7F
  0
IRD_OBJ_RECORD
  5
15D
102
{ACAD_REACTORS
330
15C
102
}
330
15C
100
CIrdBaseRecord
1070
   516
1071
        1
1004
01000000000000D0904037003100200041000000540061007500620065006E006C006F00630068007300630068006C0075006300680074000000530063006800FC007300730000005300740061006400740020004200690065006C0000003F000000300031002E00300036002E0032003000320034000000
100
CIrdObjRecord
330
7F
  0
IRD_OBJ_RECORD
  5
160
102
{ACAD_REACTORS
330
15F
102
}
330
15F
100
CIrdBaseRecord
1070
   516
1071
        1
1004
01000000000000D4904037003100200042000000540061007500620065006E006C006F00630068007300630068006C0075006300680074000000530063006800FC007300730000005300740061006400740020004200690065006C0000003F000000300031002E00300036002E0032003000320034000000
100
CIrdObjRecord
330
7F
  0
IRD_OBJ_RECORD
  5
163
102
{ACAD_REACTORS
330
162
102
}
330
162
100
CIrdBaseRecord
1070
   516
1071
        1
1004
01000000000000D890403700320000004200650061007500720069007600610067006500000053006500650000005300740061006400740020004200690065006C00000032003000310034000000300031002E00300036002E0032003000320034000000
100
CIrdObjRecord
330
7F
  0
IRD_OBJ_RECORD
  5
166
102
{ACAD_REACTORS
330
165
102
}
330
165
100
CIrdBaseRecord
1070
   516
1071
        1
1004
01000000000000DC90403700330000005300630068007700650069007A0065007200730062006F00640065006E0077006500670000005300420042000000530042004200000032003000310034000000300031002E00300036002E0032003000320034000000
100
CIrdObjRecord
330
7F
  0
IRD_OBJ_RECORD
  5
169
102
{ACAD_REACTORS
330
168
102
}
330
168
100
CIrdBaseRecord
1070
   516
1071
        1
1004
01000000000000E09040370034000000560065007200620069006E00640075006E00670073007700650067002000530063006800FC0074007A0065006E00670061007300730065002F004B006C006F006F00730077006500670000005300420042000000530042004200000032003000310034000000300031002E00300036
1004
002E0032003000320034000000
100
CIrdObjRecord
330
7F
  0
IRD_OBJ_RECORD
  5
16C
102
{ACAD_REACTORS
330
16B
102
}
330
16B
100
CIrdBaseRecord
1070
   516
1071
        1
1004
01000000000000E49040370035000000530063006800FC007300730069006E00730065006C00000053007400650062006C00650072002D004B0061006E0061006C0000005300740061006400740020004200690065006C00000032003000310036000000300031002E00300036002E0032003000320034000000
100
CIrdObjRecord
330
7F
  0
IRD_OBJ_RECORD
  5
16F
102
{ACAD_REACTORS
330
16E
102
}
330
16E
100
CIrdBaseRecord
1070
   516
1071
        1
1004
01000000000000E8904037003600000048006100750073006500720077006500680072000000530063006800FC007300730000003F0000003F000000300031002E00300036002E0032003000320034000000
100
CIrdObjRecord
330
7F
  0
IRD_OBJ_RECORD
  5
172
102
{ACAD_REACTORS
330
171
102
}
330
171
100
CIrdBaseRecord
1070
   516
1071
        1
1004
01000000000000EC904037003700200041000000540061007500620065006E006C006F00630068007300630068006C0075006300680074000000530063006800FC007300730000005300740061006400740020004200690065006C0000003F000000300031002E00300036002E0032003000320034000000
100
CIrdObjRecord
330
7F
  0
IRD_OBJ_RECORD
  5
175
102
{ACAD_REACTORS
330
174
102
}
330
174
100
CIrdBaseRecord
1070
   516
1071
        1
1004
01000000000000F0904037003700200042000000540061007500620065006E006C006F00630068007300630068006C0075006300680074000000530063006800FC007300730000005300740061006400740020004200690065006C0000003F000000300031002E00300036002E0032003000320034000000
100
CIrdObjRecord
330
7F
  0
ACDBDETAILVIEWSTYLE
  5
6B
102
{ACAD_XDICTIONARY
360
181
102
}
102
{ACAD_REACTORS
330
6A
102
}
330
6A
100
AcDbModelDocViewStyle
 70
     0
  3
Imperial24
290
     0
100
AcDbDetailViewStyle
 70
     0
 71
     0
 90
        3
 71
     1
340
55
 62
   256
 40
0.24
340
0
 62
   256
 40
0.24
300

 40
0.36
280
     3
 71
     2
340
5D
 90
       25
 62
   256
 71
     3
340
55
 62
   256
 40
0.24
 90
        1
 40
0.75
 90
        1
300
%<\AcVar ViewType \f "%tc1">% %<\AcVar ViewDetailId>%\PSCALE %<\AcVar ViewScale \f "%sn">%
 71
     4
340
5D
 90
       25
 62
   256
340
5D
 90
       25
 62
   256
280
     0
  0
LAYOUT
  5
6F
102
{ACAD_REACTORS
330
62
102
}
330
62
100
AcDbPlotSettings
  1

  2

  4

  6

 40
0.0
 41
0.0
 42
0.0
 43
0.0
 44
0.0
 45
0.0
 46
0.0
 47
0.0
 48
0.0
 49
0.0
140
0.0
141
0.0
142
1.0
143
1.0
 70
   688
 72
     0
 73
     0
 74
     5
  7

 75
    16
147
1.0
 76
     0
 77
     2
 78
   300
148
0.0
149
0.0
100
AcDbLayout
  1
Layout1
 70
     1
 71
     1
 10
0.0
 20
0.0
 11
12.0
 21
9.0
 12
0.0
 22
0.0
 32
0.0
 14
0.0
 24
0.0
 34
0.0
 15
0.0
 25
0.0
 35
0.0
146
0.0
 13
0.0
 23
0.0
 33
0.0
 16
1.0
 26
0.0
 36
0.0
 17
0.0
 27
1.0
 37
0.0
 76
     0
330
6C
  0
LAYOUT
  5
77
102
{ACAD_REACTORS
330
62
102
}
330
62
100
AcDbPlotSettings
  1

  2

  4

  6

 40
0.0
 41
0.0
 42
0.0
 43
0.0
 44
0.0
 45
0.0
 46
0.0
 47
0.0
 48
0.0
 49
0.0
140
0.0
141
0.0
142
1.0
143
1.0
 70
   688
 72
     0
 73
     0
 74
     5
  7

 75
    16
147
1.0
 76
     0
 77
     2
 78
   300
148
0.0
149
0.0
100
AcDbLayout
  1
Layout2
 70
     1
 71
     2
 10
0.0
 20
0.0
 11
12.0
 21
9.0
 12
0.0
 22
0.0
 32
0.0
 14
0.0
 24
0.0
 34
0.0
 15
0.0
 25
0.0
 35
0.0
146
0.0
 13
0.0
 23
0.0
 33
0.0
 16
1.0
 26
0.0
 36
0.0
 17
0.0
 27
1.0
 37
0.0
 76
     0
330
74
  0
LAYOUT
  5
73
102
{ACAD_REACTORS
330
62
102
}
330
62
100
AcDbPlotSettings
  1

  2

  4

  6

 40
0.0
 41
0.0
 42
0.0
 43
0.0
 44
0.0
 45
0.0
 46
0.0
 47
0.0
 48
0.0
 49
0.0
140
0.0
141
0.0
142
1.0
143
1.0
 70
  1712
 72
     0
 73
     0
 74
     0
  7

 75
     0
147
1.0
 76
     0
 77
     2
 78
   300
148
0.0
149
0.0
100
AcDbLayout
  1
Model
 70
     1
 71
     0
 10
0.0
 20
0.0
 11
12.0
 21
9.0
 12
0.0
 22
0.0
 32
0.0
 14
0.0
 24
0.0
 34
0.0
 15
0.0
 25
0.0
 35
0.0
146
0.0
 13
0.0
 23
0.0
 33
0.0
 16
1.0
 26
0.0
 36
0.0
 17
0.0
 27
1.0
 37
0.0
 76
     0
330
70
  0
MATERIAL
  5
19
102
{ACAD_XDICTIONARY
360
1A
102
}
102
{ACAD_REACTORS
330
10
102
}
330
10
100
AcDbMaterial
  1
ByBlock
 72
     0
 43
0.0208333333333333
 43
0.0
 43
0.0
 43
0.0
 43
0.0
 43
0.0208333333333333
 43
0.0
 43
0.0
 43
0.0
 43
0.0
 43
1.0
 43
0.0
 43
0.0
 43
0.0
 43
0.0
 43
1.0
 77
     0
 47
0.0208333333333333
 47
0.0
 47
0.0
 47
0.0
 47
0.0
 47
0.0208333333333333
 47
0.0
 47
0.0
 47
0.0
 47
0.0
 47
1.0
 47
0.0
 47
0.0
 47
0.0
 47
0.0
 47
1.0
171
     0
 49
0.0208333333333333
 49
0.0
 49
0.0
 49
0.0
 49
0.0
 49
0.0208333333333333
 49
0.0
 49
0.0
 49
0.0
 49
0.0
 49
1.0
 49
0.0
 49
0.0
 49
0.0
 49
0.0
 49
1.0
175
     0
142
0.0208333333333333
142
0.0
142
0.0
142
0.0
142
0.0
142
0.0208333333333333
142
0.0
142
0.0
142
0.0
142
0.0
142
1.0
142
0.0
142
0.0
142
0.0
142
0.0
142
1.0
179
     0
144
0.0208333333333333
144
0.0
144
0.0
144
0.0
144
0.0
144
0.0208333333333333
144
0.0
144
0.0
144
0.0
144
0.0
144
1.0
144
0.0
144
0.0
144
0.0
144
0.0
144
1.0
147
0.0208333333333333
147
0.0
147
0.0
147
0.0
147
0.0
147
0.0208333333333333
147
0.0
147
0.0
147
0.0
147
0.0
147
1.0
147
0.0
147
0.0
147
0.0
147
0.0
147
1.0
  0
MATERIAL
  5
11
102
{ACAD_XDICTIONARY
360
12
102
}
102
{ACAD_REACTORS
330
10
102
}
330
10
100
AcDbMaterial
  1
ByLayer
 72
     0
 43
0.0208333333333333
 43
0.0
 43
0.0
 43
0.0
 43
0.0
 43
0.0208333333333333
 43
0.0
 43
0.0
 43
0.0
 43
0.0
 43
1.0
 43
0.0
 43
0.0
 43
0.0
 43
0.0
 43
1.0
 77
     0
 47
0.0208333333333333
 47
0.0
 47
0.0
 47
0.0
 47
0.0
 47
0.0208333333333333
 47
0.0
 47
0.0
 47
0.0
 47
0.0
 47
1.0
 47
0.0
 47
0.0
 47
0.0
 47
0.0
 47
1.0
171
     0
 49
0.0208333333333333
 49
0.0
 49
0.0
 49
0.0
 49
0.0
 49
0.0208333333333333
 49
0.0
 49
0.0
 49
0.0
 49
0.0
 49
1.0
 49
0.0
 49
0.0
 49
0.0
 49
0.0
 49
1.0
175
     0
142
0.0208333333333333
142
0.0
142
0.0
142
0.0
142
0.0
142
0.0208333333333333
142
0.0
142
0.0
142
0.0
142
0.0
142
1.0
142
0.0
142
0.0
142
0.0
142
0.0
142
1.0
179
     0
144
0.0208333333333333
144
0.0
144
0.0
144
0.0
144
0.0
144
0.0208333333333333
144
0.0
144
0.0
144
0.0
144
0.0
144
1.0
144
0.0
144
0.0
144
0.0
144
0.0
144
1.0
147
0.0208333333333333
147
0.0
147
0.0
147
0.0
147
0.0
147
0.0208333333333333
147
0.0
147
0.0
147
0.0
147
0.0
147
1.0
147
0.0
147
0.0
147
0.0
147
0.0
147
1.0
  0
MATERIAL
  5
21
102
{ACAD_XDICTIONARY
360
22
102
}
102
{ACAD_REACTORS
330
10
102
}
330
10
100
AcDbMaterial
  1
Global
 72
     0
 43
0.0208333333333333
 43
0.0
 43
0.0
 43
0.0
 43
0.0
 43
0.0208333333333333
 43
0.0
 43
0.0
 43
0.0
 43
0.0
 43
1.0
 43
0.0
 43
0.0
 43
0.0
 43
0.0
 43
1.0
 77
     0
 47
0.0208333333333333
 47
0.0
 47
0.0
 47
0.0
 47
0.0
 47
0.0208333333333333
 47
0.0
 47
0.0
 47
0.0
 47
0.0
 47
1.0
 47
0.0
 47
0.0
 47
0.0
 47
0.0
 47
1.0
171
     0
 49
0.0208333333333333
 49
0.0
 49
0.0
 49
0.0
 49
0.0
 49
0.0208333333333333
 49
0.0
 49
0.0
 49
0.0
 49
0.0
 49
1.0
 49
0.0
 49
0.0
 49
0.0
 49
0.0
 49
1.0
175
     0
142
0.0208333333333333
142
0.0
142
0.0
142
0.0
142
0.0
142
0.0208333333333333
142
0.0
142
0.0
142
0.0
142
0.0
142
1.0
142
0.0
142
0.0
142
0.0
142
0.0
142
1.0
179
     0
144
0.0208333333333333
144
0.0
144
0.0
144
0.0
144
0.0
144
0.0208333333333333
144
0.0
144
0.0
144
0.0
144
0.0
144
1.0
144
0.0
144
0.0
144
0.0
144
0.0
144
1.0
147
0.0208333333333333
147
0.0
147
0.0
147
0.0
147
0.0
147
0.0208333333333333
147
0.0
147
0.0
147
0.0
147
0.0
147
1.0
147
0.0
147
0.0
147
0.0
147
0.0
147
1.0
  0
MLEADERSTYLE
  5
67
102
{ACAD_REACTORS
330
66
102
}
330
66
100
AcDbMLeaderStyle
179
     2
170
     2
171
     1
172
     0
 90
        2
 40
0.0
 41
0.0
173
     1
 91
-1056964608
340
5B
 92
       -2
290
     1
 42
0.09
291
     1
 43
0.36
  3
Standard
 44
0.18
300

342
55
174
     1
178
     6
175
     1
176
     0
 93
-1056964608
 45
0.18
292
     0
297
     0
 46
0.18
 94
-1056964608
 47
1.0
 49
1.0
140
1.0
293
     1
141
0.0
294
     1
177
     0
142
1.0
295
     0
296
     0
143
0.125
271
     0
272
     9
273
     9
298
     1
  0
MLINESTYLE
  5
60
102
{ACAD_REACTORS
330
5F
102
}
330
5F
100
AcDbMlineStyle
  2
STANDARD
 70
     0
  3

 62
   256
 51
90.0
 52
90.0
 71
     2
 49
0.5
 62
   256
  6
BYLAYER
 49
-0.5
 62
   256
  6
BYLAYER
  0
ACDBPLACEHOLDER
  5
F
102
{ACAD_REACTORS
330
E
102
}
330
E
  0
SCALE
  5
43
102
{ACAD_REACTORS
330
42
102
}
330
42
100
AcDbScale
 70
     0
300
1:1
140
1.0
141
1.0
290
     1
  0
SCALE
  5
44
102
{ACAD_REACTORS
330
42
102
}
330
42
100
AcDbScale
 70
     0
300
1/128" = 1'-0"
140
0.0078125
141
12.0
290
     0
  0
SCALE
  5
45
102
{ACAD_REACTORS
330
42
102
}
330
42
100
AcDbScale
 70
     0
300
1/64" = 1'-0"
140
0.015625
141
12.0
290
     0
  0
SCALE
  5
46
102
{ACAD_REACTORS
330
42
102
}
330
42
100
AcDbScale
 70
     0
300
1/32" = 1'-0"
140
0.03125
141
12.0
290
     0
  0
SCALE
  5
47
102
{ACAD_REACTORS
330
42
102
}
330
42
100
AcDbScale
 70
     0
300
1/16" = 1'-0"
140
0.0625
141
12.0
290
     0
  0
SCALE
  5
48
102
{ACAD_REACTORS
330
42
102
}
330
42
100
AcDbScale
 70
     0
300
3/32" = 1'-0"
140
0.09375
141
12.0
290
     0
  0
SCALE
  5
49
102
{ACAD_REACTORS
330
42
102
}
330
42
100
AcDbScale
 70
     0
300
1/8" = 1'-0"
140
0.125
141
12.0
290
     0
  0
SCALE
  5
4A
102
{ACAD_REACTORS
330
42
102
}
330
42
100
AcDbScale
 70
     0
300
3/16" = 1'-0"
140
0.1875
141
12.0
290
     0
  0
SCALE
  5
4B
102
{ACAD_REACTORS
330
42
102
}
330
42
100
AcDbScale
 70
     0
300
1/4" = 1'-0"
140
0.25
141
12.0
290
     0
  0
SCALE
  5
4C
102
{ACAD_REACTORS
330
42
102
}
330
42
100
AcDbScale
 70
     0
300
3/8" = 1'-0"
140
0.375
141
12.0
290
     0
  0
SCALE
  5
4D
102
{ACAD_REACTORS
330
42
102
}
330
42
100
AcDbScale
 70
     0
300
1/2" = 1'-0"
140
0.5
141
12.0
290
     0
  0
SCALE
  5
4E
102
{ACAD_REACTORS
330
42
102
}
330
42
100
AcDbScale
 70
     0
300
3/4" = 1'-0"
140
0.75
141
12.0
290
     0
  0
SCALE
  5
4F
102
{ACAD_REACTORS
330
42
102
}
330
42
100
AcDbScale
 70
     0
300
1" = 1'-0"
140
1.0
141
12.0
290
     0
  0
SCALE
  5
50
102
{ACAD_REACTORS
330
42
102
}
330
42
100
AcDbScale
 70
     0
300
1-1/2" = 1'-0"
140
1.5
141
12.0
290
     0
  0
SCALE
  5
51
102
{ACAD_REACTORS
330
42
102
}
330
42
100
AcDbScale
 70
     0
300
3" = 1'-0"
140
3.0
141
12.0
290
     0
  0
SCALE
  5
52
102
{ACAD_REACTORS
330
42
102
}
330
42
100
AcDbScale
 70
     0
300
6" = 1'-0"
140
6.0
141
12.0
290
     0
  0
SCALE
  5
53
102
{ACAD_REACTORS
330
42
102
}
330
42
100
AcDbScale
 70
     0
300
1'-0" = 1'-0"
140
12.0
141
12.0
290
     0
  0
ACDBSECTIONVIEWSTYLE
  5
69
102
{ACAD_XDICTIONARY
360
17F
102
}
102
{ACAD_REACTORS
330
68
102
}
330
68
100
AcDbModelDocViewStyle
 70
     0
  3
Imperial24
290
     0
100
AcDbSectionViewStyle
 70
     0
 71
     0
 90
       78
 71
     1
340
55
 62
   256
 40
0.24
340
0
340
0
 62
   256
 40
0.24
300
I, O, Q, S, X, Z
 40
0.48
 90
        3
 40
0.18
 90
        1
 71
     2
340
5D
 90
       25
 62
   256
340
5D
 90
       50
 62
   256
 40
0.24
 40
0.0
 40
0.24
 71
     3
340
55
 62
   256
 40
0.24
 90
        1
 40
0.75
 90
        1
300
%<\AcVar ViewType \f "%tc1">% %<\AcVar ViewSectionStartId>%-%<\AcVar ViewSectionEndId>%\PSCALE %<\AcVar ViewScale \f "%sn">%
 71
     4
 62
   256
 62
   257
300
ANSI31
 40
1.0
 90
        0
290
     0
290
     0
 90
        6
 40
0.0
 40
1.570796326794896
 40
0.2617993877991494
 40
1.308996938995747
 40
-0.2617993877991494
 40
1.832595714594046
  0
TABLESTYLE
  5
65
102
{ACAD_XDICTIONARY
360
17C
102
}
102
{ACAD_REACTORS
330
64
102
}
330
64
100
AcDbTableStyle
280
     0
  3
Standard
 70
     0
 71
     0
 40
0.06
 41
0.06
280
     0
281
     0
  7
Standard
140
0.18
170
     2
 62
     0
 63
     7
283
     0
 90
      512
 91
        0
  1

274
    -2
284
     1
 64
     0
275
    -2
285
     1
 65
     0
276
    -2
286
     1
 66
     0
277
    -2
287
     1
 67
     0
278
    -2
288
     1
 68
     0
279
    -2
289
     1
 69
     0
  7
Standard
140
0.25
170
     5
 62
     0
 63
     7
283
     0
 90
      512
 91
        0
  1

274
    -2
284
     1
 64
     0
275
    -2
285
     1
 65
     0
276
    -2
286
     1
 66
     0
277
    -2
287
     1
 67
     0
278
    -2
288
     1
 68
     0
279
    -2
289
     1
 69
     0
  7
Standard
140
0.18
170
     5
 62
     0
 63
     7
283
     0
 90
      512
 91
        0
  1

274
    -2
284
     1
 64
     0
275
    -2
285
     1
 65
     0
276
    -2
286
     1
 66
     0
277
    -2
287
     1
 67
     0
278
    -2
288
     1
 68
     0
279
    -2
289
     1
 69
     0
  0
VISUALSTYLE
  5
2F
102
{ACAD_REACTORS
330
29
102
}
330
29
100
AcDbVisualStyle
  2
2dWireframe
 70
     4
177
     3
291
     0
 70
    58
 90
        0
176
     1
 90
        2
176
     1
 90
        0
176
     1
 90
        0
176
     1
 40
0.6
176
     1
 40
30.0
176
     1
 62
     7
420
 16777215
176
     1
 90
        1
176
     1
 90
        4
176
     1
 62
     7
176
     1
 62
   257
176
     1
 90
        1
176
     1
 90
        1
176
     1
 40
1.0
176
     1
 90
        0
176
     1
 62
   257
176
     1
 40
1.0
176
     1
 90
        1
176
     1
 90
        6
176
     1
 90
        2
176
     1
 62
     7
176
     1
 90
        5
176
     1
 90
        0
176
     1
 90
        0
176
     1
290
     0
176
     1
 90
        1
176
     1
 40
0.0
176
     1
 90
        0
176
     1
290
     1
176
     1
290
     1
176
     1
290
     0
176
     1
290
     0
176
     1
290
     0
176
     1
290
     0
176
     1
290
     0
176
     1
290
     0
176
     1
290
     0
176
     1
 90
       50
176
     1
 40
0.0
176
     1
 40
1.0
176
     1
 90
        0
176
     1
 62
    18
420
        0
176
     1
 90
       50
176
     1
 90
        3
176
     1
 62
     5
420
      255
176
     1
290
     0
176
     1
 90
       50
176
     1
 90
       50
176
     1
 90
       50
176
     1
290
     0
176
     1
 90
       50
176
     1
 62
   256
176
     0
 40
1.0
176
     0
 90
        2
176
     1
  1
strokes_ogs.tif
176
     1
290
     0
176
     1
 40
1.0
176
     1
 40
1.0
176
     1
1001
ACAD
1000
AcDbSavedByObjectVersion
1070
     0
  0
VISUALSTYLE
  5
2E
102
{ACAD_REACTORS
330
29
102
}
330
29
100
AcDbVisualStyle
  2
Basic
 70
     7
177
     3
291
     1
 70
    58
 90
        1
176
     1
 90
        0
176
     1
 90
        1
176
     1
 90
        0
176
     1
 40
0.6
176
     1
 40
30.0
176
     1
 62
     7
420
 16777215
176
     1
 90
        0
176
     1
 90
        4
176
     1
 62
     7
176
     1
 62
   257
176
     1
 90
        1
176
     1
 90
        1
176
     1
 40
1.0
176
     1
 90
        8
176
     1
 62
     7
176
     1
 40
1.0
176
     1
 90
        1
176
     1
 90
        6
176
     1
 90
        2
176
     1
 62
     7
176
     1
 90
        5
176
     1
 90
        0
176
     1
 90
        0
176
     1
290
     0
176
     1
 90
        1
176
     1
 40
0.0
176
     1
 90
        0
176
     1
290
     0
176
     1
290
     1
176
     1
290
     1
176
     1
290
     0
176
     1
290
     0
176
     1
290
     0
176
     1
290
     0
176
     1
290
     0
176
     1
290
     0
176
     1
 90
       50
176
     1
 40
0.0
176
     1
 40
1.0
176
     1
 90
        0
176
     1
 62
    18
420
        0
176
     1
 90
       50
176
     1
 90
        3
176
     1
 62
     5
420
      255
176
     1
290
     0
176
     1
 90
       50
176
     1
 90
       50
176
     1
 90
       50
176
     1
290
     0
176
     1
 90
       50
176
     1
 62
   256
176
     0
 40
1.0
176
     0
 90
        2
176
     1
  1
strokes_ogs.tif
176
     1
290
     0
176
     1
 40
1.0
176
     1
 40
1.0
176
     1
1001
ACAD
1000
AcDbSavedByObjectVersion
1070
     0
  0
VISUALSTYLE
  5
35
102
{ACAD_REACTORS
330
29
102
}
330
29
100
AcDbVisualStyle
  2
Brighten
 70
    12
177
     3
291
     1
 70
    58
 90
        2
176
     1
 90
        2
176
     1
 90
        0
176
     1
 90
        0
176
     1
 40
0.6
176
     1
 40
30.0
176
     1
 62
     7
420
 16777215
176
     1
 90
        1
176
     1
 90
        4
176
     1
 62
     7
176
     1
 62
   257
176
     1
 90
        1
176
     1
 90
        1
176
     1
 40
1.0
176
     1
 90
        8
176
     1
 62
     7
176
     1
 40
1.0
176
     1
 90
        1
176
     1
 90
        6
176
     1
 90
        2
176
     1
 62
     7
176
     1
 90
        5
176
     1
 90
        0
176
     1
 90
        0
176
     1
290
     0
176
     1
 90
        1
176
     1
 40
50.0
176
     1
 90
        0
176
     1
290
     0
176
     1
290
     1
176
     1
290
     1
176
     1
290
     0
176
     1
290
     0
176
     1
290
     0
176
     1
290
     0
176
     1
290
     0
176
     1
290
     0
176
     1
 90
       50
176
     1
 40
0.0
176
     1
 40
1.0
176
     1
 90
        0
176
     1
 62
    18
420
        0
176
     1
 90
       50
176
     1
 90
        3
176
     1
 62
     5
420
      255
176
     1
290
     0
176
     1
 90
       50
176
     1
 90
       50
176
     1
 90
       50
176
     1
290
     0
176
     1
 90
       50
176
     1
 62
   256
176
     0
 40
1.0
176
     0
 90
        2
176
     1
  1
strokes_ogs.tif
176
     1
290
     0
176
     1
 40
1.0
176
     1
 40
1.0
176
     1
1001
ACAD
1000
AcDbSavedByObjectVersion
1070
     0
  0
VISUALSTYLE
  5
39
102
{ACAD_REACTORS
330
29
102
}
330
29
100
AcDbVisualStyle
  2
ColorChange
 70
    16
177
     3
291
     1
 70
    58
 90
        2
176
     1
 90
        2
176
     1
 90
        3
176
     1
 90
        0
176
     1
 40
0.6
176
     1
 40
30.0
176
     1
 62
     8
420
  8421504
176
     1
 90
        1
176
     1
 90
        4
176
     1
 62
     7
176
     1
 62
   257
176
     1
 90
        1
176
     1
 90
        1
176
     1
 40
1.0
176
     1
 90
        8
176
     1
 62
     8
420
  8421504
176
     1
 40
1.0
176
     1
 90
        1
176
     1
 90
        6
176
     1
 90
        2
176
     1
 62
     7
176
     1
 90
        5
176
     1
 90
        0
176
     1
 90
        0
176
     1
290
     0
176
     1
 90
        1
176
     1
 40
0.0
176
     1
 90
        0
176
     1
290
     0
176
     1
290
     1
176
     1
290
     1
176
     1
290
     0
176
     1
290
     0
176
     1
290
     0
176
     1
290
     0
176
     1
290
     0
176
     1
290
     0
176
     1
 90
       50
176
     1
 40
0.0
176
     1
 40
1.0
176
     1
 90
        0
176
     1
 62
    18
420
        0
176
     1
 90
       50
176
     1
 90
        3
176
     1
 62
     5
420
      255
176
     1
290
     0
176
     1
 90
       50
176
     1
 90
       50
176
     1
 90
       50
176
     1
290
     0
176
     1
 90
       50
176
     1
 62
   256
176
     0
 40
1.0
176
     0
 90
        2
176
     1
  1
strokes_ogs.tif
176
     1
290
     0
176
     1
 40
1.0
176
     1
 40
1.0
176
     1
1001
ACAD
1000
AcDbSavedByObjectVersion
1070
     0
  0
VISUALSTYLE
  5
32
102
{ACAD_REACTORS
330
29
102
}
330
29
100
AcDbVisualStyle
  2
Conceptual
 70
     9
177
     3
291
     0
 70
    58
 90
        3
176
     1
 90
        2
176
     1
 90
        0
176
     1
 90
        0
176
     1
 40
0.6
176
     1
 40
30.0
176
     1
 62
     7
420
 16777215
176
     1
 90
        2
176
     1
 90
        2
176
     1
 62
     7
176
     1
 62
   257
176
     1
 90
        1
176
     1
 90
        1
176
     1
 40
179.0
176
     1
 90
        8
176
     1
 62
     7
176
     1
 40
1.0
176
     1
 90
        1
176
     1
 90
        6
176
     1
 90
        2
176
     1
 62
     7
176
     1
 90
        3
176
     1
 90
        0
176
     1
 90
        0
176
     1
290
     0
176
     1
 90
        1
176
     1
 40
0.0
176
     1
 90
        0
176
     1
290
     0
176
     1
290
     1
176
     1
290
     1
176
     1
290
     0
176
     1
290
     0
176
     1
290
     0
176
     1
290
     0
176
     1
290
     0
176
     1
290
     0
176
     1
 90
       50
176
     1
 40
0.0
176
     1
 40
1.0
176
     1
 90
        0
176
     1
 62
    18
420
        0
176
     1
 90
       50
176
     1
 90
        3
176
     1
 62
     5
420
      255
176
     1
290
     0
176
     1
 90
       50
176
     1
 90
       50
176
     1
 90
       50
176
     1
290
     0
176
     1
 90
       50
176
     1
 62
   256
176
     0
 40
1.0
176
     0
 90
        2
176
     1
  1
strokes_ogs.tif
176
     1
290
     0
176
     1
 40
1.0
176
     1
 40
1.0
176
     1
1001
ACAD
1000
AcDbSavedByObjectVersion
1070
     0
  0
VISUALSTYLE
  5
34
102
{ACAD_REACTORS
330
29
102
}
330
29
100
AcDbVisualStyle
  2
Dim
 70
    11
177
     3
291
     1
 70
    58
 90
        2
176
     1
 90
        2
176
     1
 90
        0
176
     1
 90
        0
176
     1
 40
0.6
176
     1
 40
30.0
176
     1
 62
     7
420
 16777215
176
     1
 90
        1
176
     1
 90
        4
176
     1
 62
     7
176
     1
 62
   257
176
     1
 90
        1
176
     1
 90
        1
176
     1
 40
1.0
176
     1
 90
        8
176
     1
 62
     7
176
     1
 40
1.0
176
     1
 90
        1
176
     1
 90
        6
176
     1
 90
        2
176
     1
 62
     7
176
     1
 90
        5
176
     1
 90
        0
176
     1
 90
        0
176
     1
290
     0
176
     1
 90
        1
176
     1
 40
-50.0
176
     1
 90
        0
176
     1
290
     0
176
     1
290
     1
176
     1
290
     1
176
     1
290
     0
176
     1
290
     0
176
     1
290
     0
176
     1
290
     0
176
     1
290
     0
176
     1
290
     0
176
     1
 90
       50
176
     1
 40
0.0
176
     1
 40
1.0
176
     1
 90
        0
176
     1
 62
    18
420
        0
176
     1
 90
       50
176
     1
 90
        3
176
     1
 62
     5
420
      255
176
     1
290
     0
176
     1
 90
       50
176
     1
 90
       50
176
     1
 90
       50
176
     1
290
     0
176
     1
 90
       50
176
     1
 62
   256
176
     0
 40
1.0
176
     0
 90
        2
176
     1
  1
strokes_ogs.tif
176
     1
290
     0
176
     1
 40
1.0
176
     1
 40
1.0
176
     1
1001
ACAD
1000
AcDbSavedByObjectVersion
1070
     0
  0
VISUALSTYLE
  5
41
102
{ACAD_REACTORS
330
29
102
}
330
29
100
AcDbVisualStyle
  2
EdgeColorOff
 70
    22
177
     3
291
     1
 70
    58
 90
        2
176
     0
 90
        2
176
     0
 90
        0
176
     0
 90
        0
176
     0
 40
0.6
176
     0
 40
30.0
176
     0
 62
     7
420
 16777215
176
     0
 90
        1
176
     0
 90
        4
176
     0
 62
     7
176
     0
 62
   257
176
     0
 90
        1
176
     0
 90
        1
176
     0
 40
1.0
176
     0
 90
        8
176
     2
 62
     7
176
     0
 40
1.0
176
     0
 90
        1
176
     0
 90
        6
176
     0
 90
        2
176
     0
 62
     7
176
     0
 90
        5
176
     0
 90
        0
176
     0
 90
        0
176
     0
290
     0
176
     0
 90
        1
176
     0
 40
0.0
176
     0
 90
        0
176
     0
290
     0
176
     0
290
     1
176
     0
290
     1
176
     0
290
     0
176
     0
290
     0
176
     0
290
     0
176
     0
290
     0
176
     0
290
     0
176
     0
290
     0
176
     0
 90
       50
176
     0
 40
0.0
176
     0
 40
1.0
176
     0
 90
        0
176
     0
 62
    18
420
        0
176
     0
 90
       50
176
     0
 90
        3
176
     0
 62
     5
420
      255
176
     0
290
     0
176
     0
 90
       50
176
     0
 90
       50
176
     0
 90
       50
176
     0
290
     0
176
     0
 90
       50
176
     0
 62
   256
176
     0
 40
1.0
176
     0
 90
        2
176
     0
  1
strokes_ogs.tif
176
     0
290
     0
176
     0
 40
1.0
176
     0
 40
1.0
176
     0
1001
ACAD
1000
AcDbSavedByObjectVersion
1070
     0
  0
VISUALSTYLE
  5
38
102
{ACAD_REACTORS
330
29
102
}
330
29
100
AcDbVisualStyle
  2
Facepattern
 70
    15
177
     3
291
     1
 70
    58
 90
        2
176
     1
 90
        2
176
     1
 90
        0
176
     1
 90
        0
176
     1
 40
0.6
176
     1
 40
30.0
176
     1
 62
     7
420
 16777215
176
     1
 90
        1
176
     1
 90
        4
176
     1
 62
     7
176
     1
 62
   257
176
     1
 90
        1
176
     1
 90
        1
176
     1
 40
1.0
176
     1
 90
        8
176
     1
 62
     7
176
     1
 40
1.0
176
     1
 90
        1
176
     1
 90
        6
176
     1
 90
        2
176
     1
 62
     7
176
     1
 90
        5
176
     1
 90
        0
176
     1
 90
        0
176
     1
290
     0
176
     1
 90
        1
176
     1
 40
0.0
176
     1
 90
        0
176
     1
290
     0
176
     1
290
     1
176
     1
290
     1
176
     1
290
     0
176
     1
290
     0
176
     1
290
     0
176
     1
290
     0
176
     1
290
     0
176
     1
290
     0
176
     1
 90
       50
176
     1
 40
0.0
176
     1
 40
1.0
176
     1
 90
        0
176
     1
 62
    18
420
        0
176
     1
 90
       50
176
     1
 90
        3
176
     1
 62
     5
420
      255
176
     1
290
     0
176
     1
 90
       50
176
     1
 90
       50
176
     1
 90
       50
176
     1
290
     0
176
     1
 90
       50
176
     1
 62
   256
176
     0
 40
1.0
176
     0
 90
        2
176
     1
  1
strokes_ogs.tif
176
     1
290
     0
176
     1
 40
1.0
176
     1
 40
1.0
176
     1
1001
ACAD
1000
AcDbSavedByObjectVersion
1070
     0
  0
VISUALSTYLE
  5
2A
102
{ACAD_REACTORS
330
29
102
}
330
29
100
AcDbVisualStyle
  2
Flat
 70
     0
177
     3
291
     1
 70
    58
 90
        2
176
     1
 90
        1
176
     1
 90
        1
176
     1
 90
        2
176
     1
 40
0.6
176
     1
 40
30.0
176
     1
 62
     7
420
 16777215
176
     1
 90
        0
176
     1
 90
        0
176
     1
 62
     7
176
     1
 62
   257
176
     1
 90
        1
176
     1
 90
        1
176
     1
 40
1.0
176
     1
 90
        8
176
     1
 62
     7
176
     1
 40
1.0
176
     1
 90
        1
176
     1
 90
        6
176
     1
 90
        2
176
     1
 62
     7
176
     1
 90
        5
176
     1
 90
        0
176
     1
 90
        0
176
     1
290
     0
176
     1
 90
       13
176
     1
 40
0.0
176
     1
 90
        0
176
     1
290
     0
176
     1
290
     1
176
     1
290
     1
176
     1
290
     0
176
     1
290
     0
176
     1
290
     0
176
     1
290
     0
176
     1
290
     0
176
     1
290
     0
176
     1
 90
       50
176
     1
 40
0.0
176
     1
 40
1.0
176
     1
 90
        0
176
     1
 62
    18
420
        0
176
     1
 90
       50
176
     1
 90
        3
176
     1
 62
     5
420
      255
176
     1
290
     0
176
     1
 90
       50
176
     1
 90
       50
176
     1
 90
       50
176
     1
290
     0
176
     1
 90
       50
176
     1
 62
   256
176
     0
 40
1.0
176
     0
 90
        2
176
     1
  1
strokes_ogs.tif
176
     1
290
     0
176
     1
 40
1.0
176
     1
 40
1.0
176
     1
1001
ACAD
1000
AcDbSavedByObjectVersion
1070
     0
  0
VISUALSTYLE
  5
2B
102
{ACAD_REACTORS
330
29
102
}
330
29
100
AcDbVisualStyle
  2
FlatWithEdges
 70
     1
177
     3
291
     1
 70
    58
 90
        2
176
     1
 90
        1
176
     1
 90
        1
176
     1
 90
        2
176
     1
 40
0.6
176
     1
 40
30.0
176
     1
 62
     7
420
 16777215
176
     1
 90
        1
176
     1
 90
        0
176
     1
 62
     7
176
     1
 62
   257
176
     1
 90
        1
176
     1
 90
        1
176
     1
 40
1.0
176
     1
 90
        0
176
     1
 62
   257
176
     1
 40
1.0
176
     1
 90
        1
176
     1
 90
        6
176
     1
 90
        2
176
     1
 62
     7
176
     1
 90
        5
176
     1
 90
        0
176
     1
 90
        0
176
     1
290
     0
176
     1
 90
       13
176
     1
 40
0.0
176
     1
 90
        0
176
     1
290
     0
176
     1
290
     1
176
     1
290
     1
176
     1
290
     0
176
     1
290
     0
176
     1
290
     0
176
     1
290
     0
176
     1
290
     0
176
     1
290
     0
176
     1
 90
       50
176
     1
 40
0.0
176
     1
 40
1.0
176
     1
 90
        0
176
     1
 62
    18
420
        0
176
     1
 90
       50
176
     1
 90
        3
176
     1
 62
     5
420
      255
176
     1
290
     0
176
     1
 90
       50
176
     1
 90
       50
176
     1
 90
       50
176
     1
290
     0
176
     1
 90
       50
176
     1
 62
   256
176
     0
 40
1.0
176
     0
 90
        2
176
     1
  1
strokes_ogs.tif
176
     1
290
     0
176
     1
 40
1.0
176
     1
 40
1.0
176
     1
1001
ACAD
1000
AcDbSavedByObjectVersion
1070
     0
  0
VISUALSTYLE
  5
2C
102
{ACAD_REACTORS
330
29
102
}
330
29
100
AcDbVisualStyle
  2
Gouraud
 70
     2
177
     3
291
     1
 70
    58
 90
        2
176
     1
 90
        2
176
     1
 90
        1
176
     1
 90
        2
176
     1
 40
0.6
176
     1
 40
30.0
176
     1
 62
     7
420
 16777215
176
     1
 90
        0
176
     1
 90
        0
176
     1
 62
     7
176
     1
 62
   257
176
     1
 90
        1
176
     1
 90
        1
176
     1
 40
1.0
176
     1
 90
        0
176
     1
 62
     7
176
     1
 40
1.0
176
     1
 90
        1
176
     1
 90
        6
176
     1
 90
        2
176
     1
 62
     7
176
     1
 90
        5
176
     1
 90
        0
176
     1
 90
        0
176
     1
290
     0
176
     1
 90
       13
176
     1
 40
0.0
176
     1
 90
        0
176
     1
290
     0
176
     1
290
     1
176
     1
290
     1
176
     1
290
     0
176
     1
290
     0
176
     1
290
     0
176
     1
290
     0
176
     1
290
     0
176
     1
290
     0
176
     1
 90
       50
176
     1
 40
0.0
176
     1
 40
1.0
176
     1
 90
        0
176
     1
 62
    18
420
        0
176
     1
 90
       50
176
     1
 90
        3
176
     1
 62
     5
420
      255
176
     1
290
     0
176
     1
 90
       50
176
     1
 90
       50
176
     1
 90
       50
176
     1
290
     0
176
     1
 90
       50
176
     1
 62
   256
176
     0
 40
1.0
176
     0
 90
        2
176
     1
  1
strokes_ogs.tif
176
     1
290
     0
176
     1
 40
1.0
176
     1
 40
1.0
176
     1
1001
ACAD
1000
AcDbSavedByObjectVersion
1070
     0
  0
VISUALSTYLE
  5
2D
102
{ACAD_REACTORS
330
29
102
}
330
29
100
AcDbVisualStyle
  2
GouraudWithEdges
 70
     3
177
     3
291
     1
 70
    58
 90
        2
176
     1
 90
        2
176
     1
 90
        1
176
     1
 90
        2
176
     1
 40
0.6
176
     1
 40
30.0
176
     1
 62
     7
420
 16777215
176
     1
 90
        1
176
     1
 90
        0
176
     1
 62
     7
176
     1
 62
   257
176
     1
 90
        1
176
     1
 90
        1
176
     1
 40
1.0
176
     1
 90
        0
176
     1
 62
   257
176
     1
 40
1.0
176
     1
 90
        1
176
     1
 90
        6
176
     1
 90
        2
176
     1
 62
     7
176
     1
 90
        5
176
     1
 90
        0
176
     1
 90
        0
176
     1
290
     0
176
     1
 90
       13
176
     1
 40
0.0
176
     1
 90
        0
176
     1
290
     0
176
     1
290
     1
176
     1
290
     1
176
     1
290
     0
176
     1
290
     0
176
     1
290
     0
176
     1
290
     0
176
     1
290
     0
176
     1
290
     0
176
     1
 90
       50
176
     1
 40
0.0
176
     1
 40
1.0
176
     1
 90
        0
176
     1
 62
    18
420
        0
176
     1
 90
       50
176
     1
 90
        3
176
     1
 62
     5
420
      255
176
     1
290
     0
176
     1
 90
       50
176
     1
 90
       50
176
     1
 90
       50
176
     1
290
     0
176
     1
 90
       50
176
     1
 62
   256
176
     0
 40
1.0
176
     0
 90
        2
176
     1
  1
strokes_ogs.tif
176
     1
290
     0
176
     1
 40
1.0
176
     1
 40
1.0
176
     1
1001
ACAD
1000
AcDbSavedByObjectVersion
1070
     0
  0
VISUALSTYLE
  5
31
102
{ACAD_REACTORS
330
29
102
}
330
29
100
AcDbVisualStyle
  2
Hidden
 70
     6
177
     3
291
     0
 70
    58
 90
        1
176
     1
 90
        2
176
     1
 90
        2
176
     1
 90
        0
176
     1
 40
0.6
176
     1
 40
30.0
176
     1
 62
     7
420
 16777215
176
     1
 90
        2
176
     1
 90
        2
176
     1
 62
     7
176
     1
 62
   257
176
     1
 90
        2
176
     1
 90
        1
176
     1
 40
40.0
176
     1
 90
        0
176
     1
 62
   257
176
     1
 40
1.0
176
     1
 90
        1
176
     1
 90
        6
176
     1
 90
        2
176
     1
 62
     7
176
     1
 90
        3
176
     1
 90
        0
176
     1
 90
        0
176
     1
290
     0
176
     1
 90
        1
176
     1
 40
0.0
176
     1
 90
        0
176
     1
290
     0
176
     1
290
     1
176
     1
290
     1
176
     1
290
     0
176
     1
290
     0
176
     1
290
     0
176
     1
290
     0
176
     1
290
     0
176
     1
290
     0
176
     1
 90
       50
176
     1
 40
0.0
176
     1
 40
1.0
176
     1
 90
        0
176
     1
 62
    18
420
        0
176
     1
 90
       50
176
     1
 90
        3
176
     1
 62
     5
420
      255
176
     1
290
     0
176
     1
 90
       50
176
     1
 90
       50
176
     1
 90
       50
176
     1
290
     0
176
     1
 90
       50
176
     1
 62
   256
176
     0
 40
1.0
176
     0
 90
        2
176
     1
  1
strokes_ogs.tif
176
     1
290
     0
176
     1
 40
1.0
176
     1
 40
1.0
176
     1
1001
ACAD
1000
AcDbSavedByObjectVersion
1070
     0
  0
VISUALSTYLE
  5
3F
102
{ACAD_REACTORS
330
29
102
}
330
29
100
AcDbVisualStyle
  2
JitterOff
 70
    20
177
     3
291
     1
 70
    58
 90
        2
176
     0
 90
        2
176
     0
 90
        0
176
     0
 90
        0
176
     0
 40
0.6
176
     0
 40
30.0
176
     0
 62
     7
420
 16777215
176
     0
 90
        1
176
     0
 90
        4
176
     0
 62
     7
176
     0
 62
   257
176
     0
 90
        1
176
     0
 90
        1
176
     0
 40
1.0
176
     0
 90
       10
176
     2
 62
     7
176
     0
 40
1.0
176
     0
 90
        1
176
     0
 90
        6
176
     0
 90
        2
176
     0
 62
     7
176
     0
 90
        5
176
     0
 90
        0
176
     0
 90
        0
176
     0
290
     0
176
     0
 90
        1
176
     0
 40
0.0
176
     0
 90
        0
176
     0
290
     0
176
     0
290
     1
176
     0
290
     1
176
     0
290
     0
176
     0
290
     0
176
     0
290
     0
176
     0
290
     0
176
     0
290
     0
176
     0
290
     0
176
     0
 90
       50
176
     0
 40
0.0
176
     0
 40
1.0
176
     0
 90
        0
176
     0
 62
    18
420
        0
176
     0
 90
       50
176
     0
 90
        3
176
     0
 62
     5
420
      255
176
     0
290
     0
176
     0
 90
       50
176
     0
 90
       50
176
     0
 90
       50
176
     0
290
     0
176
     0
 90
       50
176
     0
 62
   256
176
     0
 40
1.0
176
     0
 90
        2
176
     0
  1
strokes_ogs.tif
176
     0
290
     0
176
     0
 40
1.0
176
     0
 40
1.0
176
     0
1001
ACAD
1000
AcDbSavedByObjectVersion
1070
     0
  0
VISUALSTYLE
  5
37
102
{ACAD_REACTORS
330
29
102
}
330
29
100
AcDbVisualStyle
  2
Linepattern
 70
    14
177
     3
291
     1
 70
    58
 90
        2
176
     1
 90
        2
176
     1
 90
        0
176
     1
 90
        0
176
     1
 40
0.6
176
     1
 40
30.0
176
     1
 62
     7
420
 16777215
176
     1
 90
        1
176
     1
 90
        4
176
     1
 62
     7
176
     1
 62
   257
176
     1
 90
        7
176
     1
 90
        7
176
     1
 40
1.0
176
     1
 90
        8
176
     1
 62
     7
176
     1
 40
1.0
176
     1
 90
        1
176
     1
 90
        6
176
     1
 90
        2
176
     1
 62
     7
176
     1
 90
        5
176
     1
 90
        0
176
     1
 90
        0
176
     1
290
     0
176
     1
 90
        1
176
     1
 40
0.0
176
     1
 90
        0
176
     1
290
     0
176
     1
290
     1
176
     1
290
     1
176
     1
290
     0
176
     1
290
     0
176
     1
290
     0
176
     1
290
     0
176
     1
290
     0
176
     1
290
     0
176
     1
 90
       50
176
     1
 40
0.0
176
     1
 40
1.0
176
     1
 90
        0
176
     1
 62
    18
420
        0
176
     1
 90
       50
176
     1
 90
        3
176
     1
 62
     5
420
      255
176
     1
290
     0
176
     1
 90
       50
176
     1
 90
       50
176
     1
 90
       50
176
     1
290
     0
176
     1
 90
       50
176
     1
 62
   256
176
     0
 40
1.0
176
     0
 90
        2
176
     1
  1
strokes_ogs.tif
176
     1
290
     0
176
     1
 40
1.0
176
     1
 40
1.0
176
     1
1001
ACAD
1000
AcDbSavedByObjectVersion
1070
     0
  0
VISUALSTYLE
  5
40
102
{ACAD_REACTORS
330
29
102
}
330
29
100
AcDbVisualStyle
  2
OverhangOff
 70
    21
177
     3
291
     1
 70
    58
 90
        2
176
     0
 90
        2
176
     0
 90
        0
176
     0
 90
        0
176
     0
 40
0.6
176
     0
 40
30.0
176
     0
 62
     7
420
 16777215
176
     0
 90
        1
176
     0
 90
        4
176
     0
 62
     7
176
     0
 62
   257
176
     0
 90
        1
176
     0
 90
        1
176
     0
 40
1.0
176
     0
 90
        9
176
     2
 62
     7
176
     0
 40
1.0
176
     0
 90
        1
176
     0
 90
        6
176
     0
 90
        2
176
     0
 62
     7
176
     0
 90
        5
176
     0
 90
        0
176
     0
 90
        0
176
     0
290
     0
176
     0
 90
        1
176
     0
 40
0.0
176
     0
 90
        0
176
     0
290
     0
176
     0
290
     1
176
     0
290
     1
176
     0
290
     0
176
     0
290
     0
176
     0
290
     0
176
     0
290
     0
176
     0
290
     0
176
     0
290
     0
176
     0
 90
       50
176
     0
 40
0.0
176
     0
 40
1.0
176
     0
 90
        0
176
     0
 62
    18
420
        0
176
     0
 90
       50
176
     0
 90
        3
176
     0
 62
     5
420
      255
176
     0
290
     0
176
     0
 90
       50
176
     0
 90
       50
176
     0
 90
       50
176
     0
290
     0
176
     0
 90
       50
176
     0
 62
   256
176
     0
 40
1.0
176
     0
 90
        2
176
     0
  1
strokes_ogs.tif
176
     0
290
     0
176
     0
 40
1.0
176
     0
 40
1.0
176
     0
1001
ACAD
1000
AcDbSavedByObjectVersion
1070
     0
  0
VISUALSTYLE
  5
33
102
{ACAD_REACTORS
330
29
102
}
330
29
100
AcDbVisualStyle
  2
Realistic
 70
     8
177
     3
291
     0
 70
    58
 90
        2
176
     1
 90
        3
176
     1
 90
        0
176
     1
 90
        2
176
     1
 40
0.6
176
     1
 40
30.0
176
     1
 62
     7
420
 16777215
176
     1
 90
        0
176
     1
 90
        0
176
     1
 62
     7
176
     1
 62
   257
176
     1
 90
        1
176
     1
 90
        1
176
     1
 40
1.0
176
     1
 90
        8
176
     1
 62
   257
176
     1
 40
1.0
176
     1
 90
        1
176
     1
 90
        6
176
     1
 90
        2
176
     1
 62
     7
176
     1
 90
        3
176
     1
 90
        0
176
     1
 90
        0
176
     1
290
     0
176
     1
 90
       13
176
     1
 40
0.0
176
     1
 90
        0
176
     1
290
     0
176
     1
290
     1
176
     1
290
     1
176
     1
290
     0
176
     1
290
     0
176
     1
290
     0
176
     1
290
     0
176
     1
290
     0
176
     1
290
     0
176
     1
 90
       50
176
     1
 40
0.0
176
     1
 40
1.0
176
     1
 90
        0
176
     1
 62
    18
420
        0
176
     1
 90
       50
176
     1
 90
        3
176
     1
 62
     5
420
      255
176
     1
290
     0
176
     1
 90
       50
176
     1
 90
       50
176
     1
 90
       50
176
     1
290
     0
176
     1
 90
       50
176
     1
 62
   256
176
     0
 40
1.0
176
     0
 90
        2
176
     1
  1
strokes_ogs.tif
176
     1
290
     0
176
     1
 40
1.0
176
     1
 40
1.0
176
     1
1001
ACAD
1000
AcDbSavedByObjectVersion
1070
     0
  0
VISUALSTYLE
  5
3E
102
{ACAD_REACTORS
330
29
102
}
330
29
100
AcDbVisualStyle
  2
Shaded
 70
    27
177
     3
291
     0
 70
    58
 90
        2
176
     1
 90
        2
176
     1
 90
        1
176
     1
 90
        2
176
     1
 40
0.6
176
     1
 40
30.0
176
     1
 62
     7
420
 16777215
176
     1
 90
        0
176
     1
 90
        4
176
     1
 62
     7
176
     1
 62
   257
176
     1
 90
        1
176
     1
 90
        1
176
     1
 40
1.0
176
     1
 90
        8
176
     1
 62
   257
176
     1
 40
1.0
176
     1
 90
        1
176
     1
 90
        6
176
     1
 90
        2
176
     1
 62
     8
420
  7895160
176
     1
 90
        3
176
     1
 90
        0
176
     1
 90
        0
176
     1
290
     0
176
     1
 90
        5
176
     1
 40
0.0
176
     1
 90
        0
176
     1
290
     0
176
     1
290
     1
176
     1
290
     1
176
     1
290
     0
176
     1
290
     0
176
     1
290
     0
176
     1
290
     0
176
     1
290
     0
176
     1
290
     0
176
     1
 90
       50
176
     1
 40
0.0
176
     1
 40
1.0
176
     1
 90
        0
176
     1
 62
    18
420
        0
176
     1
 90
       50
176
     1
 90
        3
176
     1
 62
     5
420
      255
176
     1
290
     0
176
     1
 90
       50
176
     1
 90
       50
176
     1
 90
       50
176
     1
290
     0
176
     1
 90
       50
176
     1
 62
   256
176
     0
 40
1.0
176
     0
 90
        2
176
     1
  1
strokes_ogs.tif
176
     1
290
     0
176
     1
 40
1.0
176
     1
 40
1.0
176
     1
1001
ACAD
1000
AcDbSavedByObjectVersion
1070
     0
  0
VISUALSTYLE
  5
3D
102
{ACAD_REACTORS
330
29
102
}
330
29
100
AcDbVisualStyle
  2
Shaded with edges
 70
    26
177
     3
291
     0
 70
    58
 90
        2
176
     1
 90
        2
176
     1
 90
        1
176
     1
 90
        2
176
     1
 40
0.6
176
     1
 40
30.0
176
     1
 62
     7
420
 16777215
176
     1
 90
        1
176
     1
 90
        2
176
     1
 62
     7
176
     1
 62
   257
176
     1
 90
        2
176
     1
 90
        1
176
     1
 40
1.0
176
     1
 90
        8
176
     1
 62
   257
176
     1
 40
1.0
176
     1
 90
        1
176
     1
 90
        6
176
     1
 90
        2
176
     1
 62
     7
176
     1
 90
        3
176
     1
 90
        0
176
     1
 90
        0
176
     1
290
     0
176
     1
 90
        5
176
     1
 40
0.0
176
     1
 90
        0
176
     1
290
     0
176
     1
290
     1
176
     1
290
     1
176
     1
290
     0
176
     1
290
     0
176
     1
290
     0
176
     1
290
     0
176
     1
290
     0
176
     1
290
     0
176
     1
 90
       50
176
     1
 40
0.0
176
     1
 40
1.0
176
     1
 90
        0
176
     1
 62
    18
420
        0
176
     1
 90
       50
176
     1
 90
        3
176
     1
 62
     5
420
      255
176
     1
290
     0
176
     1
 90
       50
176
     1
 90
       50
176
     1
 90
       50
176
     1
290
     0
176
     1
 90
       50
176
     1
 62
   256
176
     0
 40
1.0
176
     0
 90
        2
176
     1
  1
strokes_ogs.tif
176
     1
290
     0
176
     1
 40
1.0
176
     1
 40
1.0
176
     1
1001
ACAD
1000
AcDbSavedByObjectVersion
1070
     0
  0
VISUALSTYLE
  5
3A
102
{ACAD_REACTORS
330
29
102
}
330
29
100
AcDbVisualStyle
  2
Shades of Gray
 70
    23
177
     3
291
     0
 70
    58
 90
        2
176
     1
 90
        2
176
     1
 90
        3
176
     1
 90
        0
176
     1
 40
0.6
176
     1
 40
30.0
176
     1
 62
     7
420
 16777215
176
     1
 90
        2
176
     1
 90
        2
176
     1
 62
     7
176
     1
 62
     7
176
     1
 90
        1
176
     1
 90
        1
176
     1
 40
40.0
176
     1
 90
        8
176
     1
 62
     7
176
     1
 40
1.0
176
     1
 90
        1
176
     1
 90
        6
176
     1
 90
        2
176
     1
 62
     7
176
     1
 90
        3
176
     1
 90
        0
176
     1
 90
        0
176
     1
290
     0
176
     1
 90
        1
176
     1
 40
0.0
176
     1
 90
        0
176
     1
290
     0
176
     1
290
     1
176
     1
290
     1
176
     1
290
     0
176
     1
290
     0
176
     1
290
     0
176
     1
290
     0
176
     1
290
     0
176
     1
290
     0
176
     1
 90
       50
176
     1
 40
0.0
176
     1
 40
1.0
176
     1
 90
        0
176
     1
 62
    18
420
        0
176
     1
 90
       50
176
     1
 90
        3
176
     1
 62
     5
420
      255
176
     1
290
     0
176
     1
 90
       50
176
     1
 90
       50
176
     1
 90
       50
176
     1
290
     0
176
     1
 90
       50
176
     1
 62
   256
176
     0
 40
1.0
176
     0
 90
        2
176
     1
  1
strokes_ogs.tif
176
     1
290
     0
176
     1
 40
1.0
176
     1
 40
1.0
176
     1
1001
ACAD
1000
AcDbSavedByObjectVersion
1070
     0
  0
VISUALSTYLE
  5
3B
102
{ACAD_REACTORS
330
29
102
}
330
29
100
AcDbVisualStyle
  2
Sketchy
 70
    24
177
     3
291
     0
 70
    58
 90
        1
176
     1
 90
        2
176
     1
 90
        2
176
     1
 90
        0
176
     1
 40
0.6
176
     1
 40
30.0
176
     1
 62
     7
420
 16777215
176
     1
 90
        2
176
     1
 90
        2
176
     1
 62
     7
176
     1
 62
     7
176
     1
 90
        1
176
     1
 90
        1
176
     1
 40
40.0
176
     1
 90
       11
176
     1
 62
     7
176
     1
 40
1.0
176
     1
 90
        1
176
     1
 90
        6
176
     1
 90
        2
176
     1
 62
     7
176
     1
 90
        6
176
     1
 90
        0
176
     1
 90
        0
176
     1
290
     0
176
     1
 90
        1
176
     1
 40
0.0
176
     1
 90
        0
176
     1
290
     0
176
     1
290
     1
176
     1
290
     1
176
     1
290
     0
176
     1
290
     0
176
     1
290
     0
176
     1
290
     0
176
     1
290
     0
176
     1
290
     0
176
     1
 90
       50
176
     1
 40
0.0
176
     1
 40
1.0
176
     1
 90
        0
176
     1
 62
    18
420
        0
176
     1
 90
       50
176
     1
 90
        3
176
     1
 62
     5
420
      255
176
     1
290
     0
176
     1
 90
       50
176
     1
 90
       50
176
     1
 90
       50
176
     1
290
     0
176
     1
 90
       50
176
     1
 62
   256
176
     0
 40
1.0
176
     0
 90
        2
176
     1
  1
strokes_ogs.tif
176
     1
290
     0
176
     1
 40
1.0
176
     1
 40
1.0
176
     1
1001
ACAD
1000
AcDbSavedByObjectVersion
1070
     0
  0
VISUALSTYLE
  5
36
102
{ACAD_REACTORS
330
29
102
}
330
29
100
AcDbVisualStyle
  2
Thicken
 70
    13
177
     3
291
     1
 70
    58
 90
        2
176
     1
 90
        2
176
     1
 90
        0
176
     1
 90
        0
176
     1
 40
0.6
176
     1
 40
30.0
176
     1
 62
     7
420
 16777215
176
     1
 90
        1
176
     1
 90
        4
176
     1
 62
     7
176
     1
 62
   257
176
     1
 90
        1
176
     1
 90
        1
176
     1
 40
1.0
176
     1
 90
       12
176
     1
 62
     7
176
     1
 40
1.0
176
     1
 90
        1
176
     1
 90
        6
176
     1
 90
        2
176
     1
 62
     7
176
     1
 90
        5
176
     1
 90
        0
176
     1
 90
        0
176
     1
290
     0
176
     1
 90
        1
176
     1
 40
0.0
176
     1
 90
        0
176
     1
290
     0
176
     1
290
     1
176
     1
290
     1
176
     1
290
     0
176
     1
290
     0
176
     1
290
     0
176
     1
290
     0
176
     1
290
     0
176
     1
290
     0
176
     1
 90
       50
176
     1
 40
0.0
176
     1
 40
1.0
176
     1
 90
        0
176
     1
 62
    18
420
        0
176
     1
 90
       50
176
     1
 90
        3
176
     1
 62
     5
420
      255
176
     1
290
     0
176
     1
 90
       50
176
     1
 90
       50
176
     1
 90
       50
176
     1
290
     0
176
     1
 90
       50
176
     1
 62
   256
176
     0
 40
1.0
176
     0
 90
        2
176
     1
  1
strokes_ogs.tif
176
     1
290
     0
176
     1
 40
1.0
176
     1
 40
1.0
176
     1
1001
ACAD
1000
AcDbSavedByObjectVersion
1070
     0
  0
VISUALSTYLE
  5
30
102
{ACAD_REACTORS
330
29
102
}
330
29
100
AcDbVisualStyle
  2
Wireframe
 70
     5
177
     3
291
     0
 70
    58
 90
        0
176
     1
 90
        2
176
     1
 90
        0
176
     1
 90
        0
176
     1
 40
0.6
176
     1
 40
30.0
176
     1
 62
     7
420
 16777215
176
     1
 90
        1
176
     1
 90
        4
176
     1
 62
     7
176
     1
 62
   257
176
     1
 90
        1
176
     1
 90
        1
176
     1
 40
1.0
176
     1
 90
        0
176
     1
 62
   257
176
     1
 40
1.0
176
     1
 90
        1
176
     1
 90
        6
176
     1
 90
        2
176
     1
 62
     7
176
     1
 90
        3
176
     1
 90
        0
176
     1
 90
        0
176
     1
290
     0
176
     1
 90
        1
176
     1
 40
0.0
176
     1
 90
        0
176
     1
290
     0
176
     1
290
     1
176
     1
290
     1
176
     1
290
     0
176
     1
290
     0
176
     1
290
     0
176
     1
290
     0
176
     1
290
     0
176
     1
290
     0
176
     1
 90
       50
176
     1
 40
0.0
176
     1
 40
1.0
176
     1
 90
        0
176
     1
 62
    18
420
        0
176
     1
 90
       50
176
     1
 90
        3
176
     1
 62
     5
420
      255
176
     1
290
     0
176
     1
 90
       50
176
     1
 90
       50
176
     1
 90
       50
176
     1
290
     0
176
     1
 90
       50
176
     1
 62
   256
176
     0
 40
1.0
176
     0
 90
        2
176
     1
  1
strokes_ogs.tif
176
     1
290
     0
176
     1
 40
1.0
176
     1
 40
1.0
176
     1
1001
ACAD
1000
AcDbSavedByObjectVersion
1070
     0
  0
VISUALSTYLE
  5
3C
102
{ACAD_REACTORS
330
29
102
}
330
29
100
AcDbVisualStyle
  2
X-Ray
 70
    25
177
     3
291
     0
 70
    58
 90
        2
176
     1
 90
        2
176
     1
 90
        1
176
     1
 90
        1
176
     1
 40
0.5
176
     1
 40
30.0
176
     1
 62
     7
420
 16777215
176
     1
 90
        1
176
     1
 90
        0
176
     1
 62
     7
176
     1
 62
   257
176
     1
 90
        1
176
     1
 90
        1
176
     1
 40
1.0
176
     1
 90
        8
176
     1
 62
     7
176
     1
 40
1.0
176
     1
 90
        1
176
     1
 90
        6
176
     1
 90
        2
176
     1
 62
     7
176
     1
 90
        3
176
     1
 90
        0
176
     1
 90
        0
176
     1
290
     0
176
     1
 90
       13
176
     1
 40
0.0
176
     1
 90
        0
176
     1
290
     0
176
     1
290
     1
176
     1
290
     1
176
     1
290
     0
176
     1
290
     0
176
     1
290
     0
176
     1
290
     0
176
     1
290
     0
176
     1
290
     0
176
     1
 90
       50
176
     1
 40
0.0
176
     1
 40
1.0
176
     1
 90
        0
176
     1
 62
    18
420
        0
176
     1
 90
       50
176
     1
 90
        3
176
     1
 62
     5
420
      255
176
     1
290
     0
176
     1
 90
       50
176
     1
 90
       50
176
     1
 90
       50
176
     1
290
     0
176
     1
 90
       50
176
     1
 62
   256
176
     0
 40
1.0
176
     0
 90
        2
176
     1
  1
strokes_ogs.tif
176
     1
290
     0
176
     1
 40
1.0
176
     1
 40
1.0
176
     1
1001
ACAD
1000
AcDbSavedByObjectVersion
1070
     0
  0
DICTIONARYVAR
  5
17B
102
{ACAD_REACTORS
330
176
102
}
330
176
100
DictionaryVariables
280
     0
  1
1:1
  0
DICTIONARYVAR
  5
178
102
{ACAD_REACTORS
330
176
102
}
330
176
100
DictionaryVariables
280
     0
  1
STANDARD
  0
DICTIONARYVAR
  5
177
102
{ACAD_REACTORS
330
176
102
}
330
176
100
DictionaryVariables
280
     0
  1
STANDARD
  0
DICTIONARYVAR
  5
179
102
{ACAD_REACTORS
330
176
102
}
330
176
100
DictionaryVariables
280
     0
  1
Imperial24
  0
DICTIONARYVAR
  5
17A
102
{ACAD_REACTORS
330
176
102
}
330
176
100
DictionaryVariables
280
     0
  1
Imperial24
  0
IRD_DSC_RECORD
  5
7B
102
{ACAD_REACTORS
330
7A
102
}
330
7A
100
CIrdBaseRecord
1070
   516
1071
        0
1004
0115000043006C0061007300730000004900720064000000000049007200640000005400680065002000620061007300650020007300750070006500720063006C006100730073000000490072006400200043006C0061007300730020005600200031002E0030003200000000000000
100
CIrdDscRecord
1071
     5377
1000
Class-_-Ird
1071
        0
  0
IRD_DSC_RECORD
  5
7C
102
{ACAD_REACTORS
330
7A
102
}
330
7A
100
CIrdBaseRecord
1070
   516
1071
        0
1004
0117000043006C006100730073004E0075006D0065007200690063000000490072006400000043006C006100730073000000490072006400000054006800650020006200610073006500200063006C00610073007300200066006F007200200074006800650020006E0075006D006500720069006300730000004900720064
1004
00200043006C0061007300730020005600200031002E0030003200000000000000
100
CIrdDscRecord
1071
     5889
1000
ClassNumeric-_-Ird
1071
        0
  0
IRD_DSC_RECORD
  5
7D
102
{ACAD_REACTORS
330
7A
102
}
330
7A
100
CIrdBaseRecord
1070
   516
1071
        0
1004
0116000043006C006100730073005200650061006C000000490072006400000043006C006100730073004E0075006D0065007200690063000000490072006400000054006800650020007200650061006C002000760061006C00750065000000490072006400200043006C0061007300730020005600200031002E00300032
1004
00000000000000
100
CIrdDscRecord
1071
     5633
1000
ClassReal-_-Ird
1071
        0
  0
IRD_DSC_RECORD
  5
7E
102
{ACAD_REACTORS
330
7A
102
}
330
7A
100
CIrdBaseRecord
1070
   516
1071
        0
1004
0116000043006C0061007300730043006800610072000000490072006400000043006C006100730073000000490072006400000054006800650020006300680061007200610063007400650072002000760061006C00750065000000490072006400200043006C0061007300730020005600200031002E0030003200000000
1004
000000
100
CIrdDscRecord
1071
     5633
1000
ClassChar-_-Ird
1071
        0
  0
IRD_DSC_RECORD
  5
7F
102
{ACAD_REACTORS
330
7A
102
}
330
7A
100
CIrdBaseRecord
1070
   516
1071
        0
1004
0130000065003300310031005F00620072007500650063006B0065006E000000410044004500000043006C006100730073000000490072006400000000000000070000800000660069006400000043006C006100730073005200650061006C0000004900720064000000000000000000008000006E007200000043006C0061
1004
0073007300430068006100720000004900720064000000000000000000008000007300740061006E0064006F0072007400000043006C00610073007300430068006100720000004900720064000000000000000000008000007500650062006500720071007500650072007400000043006C00610073007300430068006100
1004
7200000049007200640000000000000000000080000065006900670065006E007400750065006D0065007200000043006C00610073007300430068006100720000004900720064000000000000000000008000006200610075006A00610068007200000043006C006100730073004300680061007200000049007200640000
1004
000000000000000080000064006100740065006E007300740061006E006400000043006C006100730073004300680061007200000049007200640000000000000000000000
100
CIrdDscRecord
1071
    12289
1000
e311_bruecken-_-ADE
1071
        0
  0
DICTIONARY
  5
181
330
6B
100
AcDbDictionary
280
     1
281
     1
  3
ACAD_XREC_ROUNDTRIP
360
182
  0
DICTIONARY
  5
1A
330
19
100
AcDbDictionary
280
     1
281
     1
  3
BUMPTILE
360
1C
  3
DIFFUSETILE
360
1B
  3
OPACITYTILE
360
1F
  3
REFLECTIONTILE
360
1E
  3
REFRACTIONTILE
360
20
  3
SPECULARTILE
360
1D
  0
DICTIONARY
  5
12
330
11
100
AcDbDictionary
280
     1
281
     1
  3
BUMPTILE
360
14
  3
DIFFUSETILE
360
13
  3
OPACITYTILE
360
17
  3
REFLECTIONTILE
360
16
  3
REFRACTIONTILE
360
18
  3
SPECULARTILE
360
15
  0
DICTIONARY
  5
22
330
21
100
AcDbDictionary
280
     1
281
     1
  3
BUMPTILE
360
24
  3
DIFFUSETILE
360
23
  3
OPACITYTILE
360
27
  3
REFLECTIONTILE
360
26
  3
REFRACTIONTILE
360
28
  3
SPECULARTILE
360
25
  0
DICTIONARY
  5
17F
330
69
100
AcDbDictionary
280
     1
281
     1
  3
ACAD_XREC_ROUNDTRIP
360
180
  0
DICTIONARY
  5
17C
330
65
100
AcDbDictionary
280
     1
281
     1
  3
ACAD_ROUNDTRIP_2008_TABLESTYLE_CELLSTYLEMAP
360
17D
  0
XRECORD
  5
182
102
{ACAD_REACTORS
330
181
102
}
330
181
100
AcDbXrecord
280
     1
102
DISPLAYNAME
  1
Imperial24
102
FLAGS
 90
        0
  0
XRECORD
  5
1C
102
{ACAD_REACTORS
330
1A
102
}
330
1A
100
AcDbXrecord
280
     1
270
     1
271
     1
  0
XRECORD
  5
1B
102
{ACAD_REACTORS
330
1A
102
}
330
1A
100
AcDbXrecord
280
     1
270
     1
271
     1
  0
XRECORD
  5
1F
102
{ACAD_REACTORS
330
1A
102
}
330
1A
100
AcDbXrecord
280
     1
270
     1
271
     1
  0
XRECORD
  5
1E
102
{ACAD_REACTORS
330
1A
102
}
330
1A
100
AcDbXrecord
280
     1
270
     1
271
     1
  0
XRECORD
  5
20
102
{ACAD_REACTORS
330
1A
102
}
330
1A
100
AcDbXrecord
280
     1
270
     1
271
     1
  0
XRECORD
  5
1D
102
{ACAD_REACTORS
330
1A
102
}
330
1A
100
AcDbXrecord
280
     1
270
     1
271
     1
  0
XRECORD
  5
14
102
{ACAD_REACTORS
330
12
102
}
330
12
100
AcDbXrecord
280
     1
270
     1
271
     1
  0
XRECORD
  5
13
102
{ACAD_REACTORS
330
12
102
}
330
12
100
AcDbXrecord
280
     1
270
     1
271
     1
  0
XRECORD
  5
17
102
{ACAD_REACTORS
330
12
102
}
330
12
100
AcDbXrecord
280
     1
270
     1
271
     1
  0
XRECORD
  5
16
102
{ACAD_REACTORS
330
12
102
}
330
12
100
AcDbXrecord
280
     1
270
     1
271
     1
  0
XRECORD
  5
18
102
{ACAD_REACTORS
330
12
102
}
330
12
100
AcDbXrecord
280
     1
270
     1
271
     1
  0
XRECORD
  5
15
102
{ACAD_REACTORS
330
12
102
}
330
12
100
AcDbXrecord
280
     1
270
     1
271
     1
  0
XRECORD
  5
24
102
{ACAD_REACTORS
330
22
102
}
330
22
100
AcDbXrecord
280
     1
270
     1
271
     1
  0
XRECORD
  5
23
102
{ACAD_REACTORS
330
22
102
}
330
22
100
AcDbXrecord
280
     1
270
     1
271
     1
  0
XRECORD
  5
27
102
{ACAD_REACTORS
330
22
102
}
330
22
100
AcDbXrecord
280
     1
270
     1
271
     1
  0
XRECORD
  5
26
102
{ACAD_REACTORS
330
22
102
}
330
22
100
AcDbXrecord
280
     1
270
     1
271
     1
  0
XRECORD
  5
28
102
{ACAD_REACTORS
330
22
102
}
330
22
100
AcDbXrecord
280
     1
270
     1
271
     1
  0
XRECORD
  5
25
102
{ACAD_REACTORS
330
22
102
}
330
22
100
AcDbXrecord
280
     1
270
     1
271
     1
  0
XRECORD
  5
180
102
{ACAD_REACTORS
330
17F
102
}
330
17F
100
AcDbXrecord
280
     1
102
DISPLAYNAME
  1
Imperial24
102
FLAGS
 90
        0
  0
CELLSTYLEMAP
  5
17D
102
{ACAD_REACTORS
330
17C
102
}
330
17C
100
AcDbCellStyleMap
 90
        3
300
CELLSTYLE
  1
TABLEFORMAT_BEGIN
 90
        5
170
     1
 91
        0
 92
    32768
 62
   257
 93
        1
300
CONTENTFORMAT
  1
CONTENTFORMAT_BEGIN
 90
        0
 91
        0
 92
      512
 93
        0
300

 40
0.0
140
1.0
 94
        5
 62
     0
340
55
144
0.25
309
CONTENTFORMAT_END
171
     0
 94
        0
309
TABLEFORMAT_END
  1
CELLSTYLE_BEGIN
 90
        1
 91
        1
300
_TITLE
309
CELLSTYLE_END
300
CELLSTYLE
  1
TABLEFORMAT_BEGIN
 90
        5
170
     1
 91
        0
 92
        0
 62
   257
 93
        1
300
CONTENTFORMAT
  1
CONTENTFORMAT_BEGIN
 90
        0
 91
        0
 92
      512
 93
        0
300

 40
0.0
140
1.0
 94
        5
 62
     0
340
55
144
0.18
309
CONTENTFORMAT_END
171
     0
 94
        0
309
TABLEFORMAT_END
  1
CELLSTYLE_BEGIN
 90
        2
 91
        1
300
_HEADER
309
CELLSTYLE_END
300
CELLSTYLE
  1
TABLEFORMAT_BEGIN
 90
        5
170
     1
 91
        0
 92
        0
 62
   257
 93
        1
300
CONTENTFORMAT
  1
CONTENTFORMAT_BEGIN
 90
        0
 91
        0
 92
      512
 93
        0
300

 40
0.0
140
1.0
 94
        2
 62
     0
340
55
144
0.18
309
CONTENTFORMAT_END
171
     0
 94
        0
309
TABLEFORMAT_END
  1
CELLSTYLE_BEGIN
 90
        3
 91
        2
300
_DATA
309
CELLSTYLE_END
  0
ENDSEC
  0
EOF
